  0
SECTION
  2
HEADER
  9
$ACADVER
  1
AC1024
  9
$ACADMAINTVER
 70
   225
  9
$DWGCODEPAGE
  3
ANSI_932
  9
$LASTSAVEDBY
  1
takanashi
  9
$INSBASE
 10
0.0
 20
0.0
 30
0.0
  9
$EXTMIN
 10
-0.0256200963685842
 20
-0.0181170681469212
 30
-0.0004575017208772
  9
$EXTMAX
 10
840.0256425892131
 20
594.0181329738002
 30
15.0004579033788
  9
$LIMMIN
 10
0.0
 20
0.0
  9
$LIMMAX
 10
12.0
 20
9.0
  9
$ORTHOMODE
 70
     0
  9
$REGENMODE
 70
     1
  9
$FILLMODE
 70
     1
  9
$QTEXTMODE
 70
     0
  9
$MIRRTEXT
 70
     0
  9
$LTSCALE
 40
0.2
  9
$ATTMODE
 70
     1
  9
$TEXTSIZE
 40
0.2
  9
$TRACEWID
 40
0.05
  9
$TEXTSTYLE
  7
Standard
  9
$CLAYER
  8
0
  9
$CELTYPE
  6
ByLayer
  9
$CECOLOR
 62
   256
  9
$CELTSCALE
 40
0.2
  9
$DISPSILH
 70
     0
  9
$DIMSCALE
 40
1.0
  9
$DIMASZ
 40
0.18
  9
$DIMEXO
 40
0.0625
  9
$DIMDLI
 40
0.38
  9
$DIMRND
 40
0.0
  9
$DIMDLE
 40
0.0
  9
$DIMEXE
 40
0.18
  9
$DIMTP
 40
0.0
  9
$DIMTM
 40
0.0
  9
$DIMTXT
 40
0.18
  9
$DIMCEN
 40
0.09
  9
$DIMTSZ
 40
0.0
  9
$DIMTOL
 70
     0
  9
$DIMLIM
 70
     0
  9
$DIMTIH
 70
     1
  9
$DIMTOH
 70
     1
  9
$DIMSE1
 70
     0
  9
$DIMSE2
 70
     0
  9
$DIMTAD
 70
     0
  9
$DIMZIN
 70
     0
  9
$DIMBLK
  1

  9
$DIMASO
 70
     1
  9
$DIMSHO
 70
     1
  9
$DIMPOST
  1

  9
$DIMAPOST
  1

  9
$DIMALT
 70
     0
  9
$DIMALTD
 70
     2
  9
$DIMALTF
 40
25.4
  9
$DIMLFAC
 40
1.0
  9
$DIMTOFL
 70
     0
  9
$DIMTVP
 40
0.0
  9
$DIMTIX
 70
     0
  9
$DIMSOXD
 70
     0
  9
$DIMSAH
 70
     0
  9
$DIMBLK1
  1

  9
$DIMBLK2
  1

  9
$DIMSTYLE
  2
Standard
  9
$DIMCLRD
 70
     0
  9
$DIMCLRE
 70
     0
  9
$DIMCLRT
 70
     0
  9
$DIMTFAC
 40
1.0
  9
$DIMGAP
 40
0.09
  9
$DIMJUST
 70
     0
  9
$DIMSD1
 70
     0
  9
$DIMSD2
 70
     0
  9
$DIMTOLJ
 70
     1
  9
$DIMTZIN
 70
     0
  9
$DIMALTZ
 70
     0
  9
$DIMALTTZ
 70
     0
  9
$DIMUPT
 70
     0
  9
$DIMDEC
 70
     4
  9
$DIMTDEC
 70
     4
  9
$DIMALTU
 70
     2
  9
$DIMALTTD
 70
     2
  9
$DIMTXSTY
  7
Standard
  9
$DIMAUNIT
 70
     0
  9
$DIMADEC
 70
     0
  9
$DIMALTRND
 40
0.0
  9
$DIMAZIN
 70
     0
  9
$DIMDSEP
 70
    46
  9
$DIMATFIT
 70
     3
  9
$DIMFRAC
 70
     0
  9
$DIMLDRBLK
  1

  9
$DIMLUNIT
 70
     2
  9
$DIMLWD
 70
    -2
  9
$DIMLWE
 70
    -2
  9
$DIMTMOVE
 70
     0
  9
$DIMFXL
 40
1.0
  9
$DIMFXLON
 70
     0
  9
$DIMJOGANG
 40
0.7853981633974483
  9
$DIMTFILL
 70
     0
  9
$DIMTFILLCLR
 70
     0
  9
$DIMARCSYM
 70
     0
  9
$DIMLTYPE
  6

  9
$DIMLTEX1
  6

  9
$DIMLTEX2
  6

  9
$DIMTXTDIRECTION
 70
     0
  9
$LUNITS
 70
     2
  9
$LUPREC
 70
     4
  9
$SKETCHINC
 40
0.1
  9
$FILLETRAD
 40
0.0
  9
$AUNITS
 70
     0
  9
$AUPREC
 70
     0
  9
$MENU
  1
.
  9
$ELEVATION
 40
0.0
  9
$PELEVATION
 40
0.0
  9
$THICKNESS
 40
0.0
  9
$LIMCHECK
 70
     0
  9
$CHAMFERA
 40
0.0
  9
$CHAMFERB
 40
0.0
  9
$CHAMFERC
 40
0.0
  9
$CHAMFERD
 40
0.0
  9
$SKPOLY
 70
     0
  9
$TDCREATE
 40
2457851.604201389
  9
$TDUCREATE
 40
2457851.229208322
  9
$TDUPDATE
 40
2459719.417141204
  9
$TDUUPDATE
 40
2459719.042141204
  9
$TDINDWG
 40
0.0808266319
  9
$TDUSRTIMER
 40
0.0808266319
  9
$USRTIMER
 70
     1
  9
$ANGBASE
 50
0.0
  9
$ANGDIR
 70
     0
  9
$PDMODE
 70
     0
  9
$PDSIZE
 40
0.0
  9
$PLINEWID
 40
0.0
  9
$SPLFRAME
 70
     0
  9
$SPLINETYPE
 70
     6
  9
$SPLINESEGS
 70
     8
  9
$HANDSEED
  5
1A0A
  9
$SURFTAB1
 70
     6
  9
$SURFTAB2
 70
     6
  9
$SURFTYPE
 70
     6
  9
$SURFU
 70
     6
  9
$SURFV
 70
     6
  9
$UCSBASE
  2

  9
$UCSNAME
  2

  9
$UCSORG
 10
0.0
 20
0.0
 30
0.0
  9
$UCSXDIR
 10
1.0
 20
0.0
 30
0.0
  9
$UCSYDIR
 10
0.0
 20
1.0
 30
0.0
  9
$UCSORTHOREF
  2

  9
$UCSORTHOVIEW
 70
     0
  9
$UCSORGTOP
 10
0.0
 20
0.0
 30
0.0
  9
$UCSORGBOTTOM
 10
0.0
 20
0.0
 30
0.0
  9
$UCSORGLEFT
 10
0.0
 20
0.0
 30
0.0
  9
$UCSORGRIGHT
 10
0.0
 20
0.0
 30
0.0
  9
$UCSORGFRONT
 10
0.0
 20
0.0
 30
0.0
  9
$UCSORGBACK
 10
0.0
 20
0.0
 30
0.0
  9
$PUCSBASE
  2

  9
$PUCSNAME
  2

  9
$PUCSORG
 10
0.0
 20
0.0
 30
0.0
  9
$PUCSXDIR
 10
1.0
 20
0.0
 30
0.0
  9
$PUCSYDIR
 10
0.0
 20
1.0
 30
0.0
  9
$PUCSORTHOREF
  2

  9
$PUCSORTHOVIEW
 70
     0
  9
$PUCSORGTOP
 10
0.0
 20
0.0
 30
0.0
  9
$PUCSORGBOTTOM
 10
0.0
 20
0.0
 30
0.0
  9
$PUCSORGLEFT
 10
0.0
 20
0.0
 30
0.0
  9
$PUCSORGRIGHT
 10
0.0
 20
0.0
 30
0.0
  9
$PUCSORGFRONT
 10
0.0
 20
0.0
 30
0.0
  9
$PUCSORGBACK
 10
0.0
 20
0.0
 30
0.0
  9
$USERI1
 70
     0
  9
$USERI2
 70
     0
  9
$USERI3
 70
     0
  9
$USERI4
 70
     0
  9
$USERI5
 70
     0
  9
$USERR1
 40
0.0
  9
$USERR2
 40
0.0
  9
$USERR3
 40
0.0
  9
$USERR4
 40
0.0
  9
$USERR5
 40
0.0
  9
$WORLDVIEW
 70
     1
  9
$SHADEDGE
 70
     3
  9
$SHADEDIF
 70
    70
  9
$TILEMODE
 70
     1
  9
$MAXACTVP
 70
    64
  9
$PINSBASE
 10
0.0
 20
0.0
 30
0.0
  9
$PLIMCHECK
 70
     0
  9
$PEXTMIN
 10
0.0
 20
0.0
 30
0.0
  9
$PEXTMAX
 10
0.0
 20
0.0
 30
0.0
  9
$PLIMMIN
 10
0.0
 20
0.0
  9
$PLIMMAX
 10
12.0
 20
9.0
  9
$UNITMODE
 70
     0
  9
$VISRETAIN
 70
     1
  9
$PLINEGEN
 70
     0
  9
$PSLTSCALE
 70
     1
  9
$TREEDEPTH
 70
  3020
  9
$CMLSTYLE
  2
Standard
  9
$CMLJUST
 70
     0
  9
$CMLSCALE
 40
1.0
  9
$PROXYGRAPHICS
 70
     1
  9
$MEASUREMENT
 70
     0
  9
$CELWEIGHT
370
    -1
  9
$ENDCAPS
280
     0
  9
$JOINSTYLE
280
     0
  9
$LWDISPLAY
290
     0
  9
$INSUNITS
 70
     1
  9
$HYPERLINKBASE
  1

  9
$STYLESHEET
  1
monochrome.ctb
  9
$XEDIT
290
     1
  9
$CEPSNTYPE
380
     0
  9
$PSTYLEMODE
290
     1
  9
$FINGERPRINTGUID
  2
{58EAA5C2-BAFF-40C1-AB26-89F8DD057B12}
  9
$VERSIONGUID
  2
{89B41AC4-C340-BF4D-BE7E-ACA7139806C7}
  9
$EXTNAMES
290
     1
  9
$PSVPSCALE
 40
0.0
  9
$OLESTARTUP
290
     0
  9
$SORTENTS
280
   127
  9
$INDEXCTL
280
     0
  9
$HIDETEXT
280
     1
  9
$XCLIPFRAME
280
     2
  9
$HALOGAP
280
     0
  9
$OBSCOLOR
 70
   257
  9
$OBSLTYPE
280
     0
  9
$INTERSECTIONDISPLAY
280
     0
  9
$INTERSECTIONCOLOR
 70
   257
  9
$DIMASSOC
280
     2
  9
$PROJECTNAME
  1

  9
$CAMERADISPLAY
290
     0
  9
$LENSLENGTH
 40
50.0
  9
$CAMERAHEIGHT
 40
0.0
  9
$STEPSPERSEC
 40
2.0
  9
$STEPSIZE
 40
6.0
  9
$3DDWFPREC
 40
2.0
  9
$PSOLWIDTH
 40
0.25
  9
$PSOLHEIGHT
 40
4.0
  9
$LOFTANG1
 40
1.570796326794896
  9
$LOFTANG2
 40
1.570796326794896
  9
$LOFTMAG1
 40
0.0
  9
$LOFTMAG2
 40
0.0
  9
$LOFTPARAM
 70
     7
  9
$LOFTNORMALS
280
     1
  9
$LATITUDE
 40
37.795
  9
$LONGITUDE
 40
-122.394
  9
$NORTHDIRECTION
 40
0.0
  9
$TIMEZONE
 70
 -8000
  9
$LIGHTGLYPHDISPLAY
280
     1
  9
$TILEMODELIGHTSYNCH
280
     1
  9
$CMATERIAL
347
96
  9
$SOLIDHIST
280
     0
  9
$SHOWHIST
280
     1
  9
$DWFFRAME
280
     2
  9
$DGNFRAME
280
     0
  9
$REALWORLDSCALE
290
     1
  9
$INTERFERECOLOR
 62
     1
  9
$INTERFEREOBJVS
345
A3
  9
$INTERFEREVPVS
346
A0
  9
$CSHADOW
280
     0
  9
$SHADOWPLANELOCATION
 40
0.0
  0
ENDSEC
  0
SECTION
  2
CLASSES
  0
CLASS
  1
ACDBDICTIONARYWDFLT
  2
AcDbDictionaryWithDefault
  3
ObjectDBX Classes
 90
        0
 91
        1
280
     0
281
     0
  0
CLASS
  1
DICTIONARYVAR
  2
AcDbDictionaryVar
  3
ObjectDBX Classes
 90
        0
 91
       11
280
     0
281
     0
  0
CLASS
  1
TABLESTYLE
  2
AcDbTableStyle
  3
ObjectDBX Classes
 90
     4095
 91
        1
280
     0
281
     0
  0
CLASS
  1
MATERIAL
  2
AcDbMaterial
  3
ObjectDBX Classes
 90
     1153
 91
        3
280
     0
281
     0
  0
CLASS
  1
VISUALSTYLE
  2
AcDbVisualStyle
  3
ObjectDBX Classes
 90
     4095
 91
       24
280
     0
281
     0
  0
CLASS
  1
SCALE
  2
AcDbScale
  3
ObjectDBX Classes
 90
     1153
 91
       33
280
     0
281
     0
  0
CLASS
  1
MLEADERSTYLE
  2
AcDbMLeaderStyle
  3
ACDB_MLEADERSTYLE_CLASS
 90
     4095
 91
        1
280
     0
281
     0
  0
CLASS
  1
CELLSTYLEMAP
  2
AcDbCellStyleMap
  3
ObjectDBX Classes
 90
     1152
 91
        1
280
     0
281
     0
  0
CLASS
  1
EXACXREFPANELOBJECT
  2
ExAcXREFPanelObject
  3
EXAC_ESW
 90
     1025
 91
        0
280
     0
281
     0
  0
CLASS
  1
NPOCOLLECTION
  2
AcDbImpNonPersistentObjectsCollection
  3
ObjectDBX Classes
 90
     1153
 91
        0
280
     0
281
     0
  0
CLASS
  1
LAYER_INDEX
  2
AcDbLayerIndex
  3
ObjectDBX Classes
 90
        0
 91
        0
280
     0
281
     0
  0
CLASS
  1
SPATIAL_INDEX
  2
AcDbSpatialIndex
  3
ObjectDBX Classes
 90
        0
 91
        0
280
     0
281
     0
  0
CLASS
  1
IDBUFFER
  2
AcDbIdBuffer
  3
ObjectDBX Classes
 90
        0
 91
        0
280
     0
281
     0
  0
CLASS
  1
ACDBSECTIONVIEWSTYLE
  2
AcDbSectionViewStyle
  3
ObjectDBX Classes
 90
     1025
 91
        2
280
     0
281
     0
  0
CLASS
  1
ACDBDETAILVIEWSTYLE
  2
AcDbDetailViewStyle
  3
ObjectDBX Classes
 90
     1025
 91
        2
280
     0
281
     0
  0
CLASS
  1
SORTENTSTABLE
  2
AcDbSortentsTable
  3
ObjectDBX Classes
 90
        0
 91
        1
280
     0
281
     0
  0
ENDSEC
  0
SECTION
  2
TABLES
  0
TABLE
  2
VPORT
  5
8
102
{ACAD_XDICTIONARY
360
4F8
102
}
330
0
100
AcDbSymbolTable
 70
     1
  0
VPORT
  5
94
330
8
100
AcDbSymbolTableRecord
100
AcDbViewportTableRecord
  2
*Active
 70
     0
 10
0.0
 20
0.0
 11
1.0
 21
1.0
 12
420.0000112464222
 22
297.0000079528266
 13
0.0
 23
0.0
 14
0.5
 24
0.5
 15
0.5
 25
0.5
 16
0.0
 26
0.0
 36
1.0
 17
0.0
 27
0.0
 37
0.0
 40
598.204925480838
 41
1.879391100702576
 42
50.0
 43
0.0
 44
0.0
 50
0.0
 51
0.0
 71
     0
 72
  1000
 73
     1
 74
     3
 75
     0
 76
     0
 77
     0
 78
     0
281
     0
 65
     1
110
0.0
120
0.0
130
0.0
111
1.0
121
0.0
131
0.0
112
0.0
122
1.0
132
0.0
 79
     0
146
0.0
348
9F
 60
     3
 61
     5
292
     1
282
     1
141
0.0
142
0.0
 63
   250
421
  3355443
1001
ACAD_NAV_VCDISPLAY
1070
     3
  0
ENDTAB
  0
TABLE
  2
LTYPE
  5
5
330
0
100
AcDbSymbolTable
 70
     3
  0
LTYPE
  5
14
330
5
100
AcDbSymbolTableRecord
100
AcDbLinetypeTableRecord
  2
ByBlock
 70
     0
  3

 72
    65
 73
     0
 40
0.0
  0
LTYPE
  5
15
330
5
100
AcDbSymbolTableRecord
100
AcDbLinetypeTableRecord
  2
ByLayer
 70
     0
  3

 72
    65
 73
     0
 40
0.0
  0
LTYPE
  5
16
330
5
100
AcDbSymbolTableRecord
100
AcDbLinetypeTableRecord
  2
Continuous
 70
     0
  3
Solid line
 72
    65
 73
     0
 40
0.0
  0
LTYPE
  5
2E0
330
5
100
AcDbSymbolTableRecord
100
AcDbLinetypeTableRecord
  2
Amconstr
 70
     0
  3
_______________________
 72
    65
 73
     2
 40
9999.0
 49
9999.0
 74
     0
 49
0.0
 74
     0
  0
LTYPE
  5
2E1
330
5
100
AcDbSymbolTableRecord
100
AcDbLinetypeTableRecord
  2
DASHED2
 70
     0
  3
Dashed (.5x) _ _ _ _ _ _ _ _ _ _ _ _ _ _ _ _ _
 72
    65
 73
     2
 40
9.524999999999996
 49
6.349999999999997
 74
     0
 49
-3.174999999999998
 74
     0
  0
ENDTAB
  0
TABLE
  2
LAYER
  5
2
102
{ACAD_XDICTIONARY
360
18E
102
}
330
0
100
AcDbSymbolTable
 70
    12
  0
LAYER
  5
10
102
{ACAD_XDICTIONARY
360
E6
102
}
330
2
100
AcDbSymbolTableRecord
100
AcDbLayerTableRecord
  2
0
 70
     0
 62
     7
  6
Continuous
370
    -3
390
F
347
98
  0
LAYER
  5
2E2
102
{ACAD_XDICTIONARY
360
2E3
102
}
330
2
100
AcDbSymbolTableRecord
100
AcDbLayerTableRecord
  2
YAKUMONO
 70
     0
 62
     3
  6
Continuous
370
    -3
390
F
347
98
  0
LAYER
  5
2E4
102
{ACAD_XDICTIONARY
360
2E5
102
}
330
2
100
AcDbSymbolTableRecord
100
AcDbLayerTableRecord
  2
SEIHIN
 70
     0
 62
     4
  6
Continuous
370
    -3
390
F
347
98
  0
LAYER
  5
2E6
102
{ACAD_XDICTIONARY
360
2E7
102
}
330
2
100
AcDbSymbolTableRecord
100
AcDbLayerTableRecord
  2
MOJI
 70
     0
 62
     7
  6
Continuous
370
    -3
390
F
347
98
  0
LAYER
  5
2E8
102
{ACAD_XDICTIONARY
360
2E9
102
}
330
2
100
AcDbSymbolTableRecord
100
AcDbLayerTableRecord
  2
BISUKUGI
 70
     0
 62
     6
  6
Continuous
370
    -3
390
F
347
98
  0
LAYER
  5
2EA
102
{ACAD_XDICTIONARY
360
2EB
102
}
330
2
100
AcDbSymbolTableRecord
100
AcDbLayerTableRecord
  2
WAKU
 70
     0
 62
     7
  6
Continuous
370
    -3
390
F
347
98
  0
LAYER
  5
2EC
102
{ACAD_XDICTIONARY
360
2ED
102
}
330
2
100
AcDbSymbolTableRecord
100
AcDbLayerTableRecord
  2
KUTAI
 70
     0
 62
     2
  6
Continuous
370
    -3
390
2FD
347
98
  0
LAYER
  5
2EE
102
{ACAD_XDICTIONARY
360
2EF
102
}
330
2
100
AcDbSymbolTableRecord
100
AcDbLayerTableRecord
  2
BOUSUISI
 70
     0
 62
     1
  6
DASHED2
370
    -3
390
2FD
347
98
  0
LAYER
  5
2F0
102
{ACAD_XDICTIONARY
360
2F1
102
}
330
2
100
AcDbSymbolTableRecord
100
AcDbLayerTableRecord
  2
DOUBUTI
 70
     0
 62
     7
  6
Continuous
370
    -3
390
2FD
347
98
  0
LAYER
  5
2F2
102
{ACAD_XDICTIONARY
360
2F3
102
}
330
2
100
AcDbSymbolTableRecord
100
AcDbLayerTableRecord
  2
AM_CL
 70
     0
 62
    -1
  6
Amconstr
290
     0
370
    25
390
F
347
98
  0
LAYER
  5
2F4
102
{ACAD_XDICTIONARY
360
2F5
102
}
330
2
100
AcDbSymbolTableRecord
100
AcDbLayerTableRecord
  2
SI-RINGU
 70
     0
 62
     9
  6
Continuous
370
    -3
390
2FD
347
98
  0
LAYER
  5
682
102
{ACAD_XDICTIONARY
360
683
102
}
330
2
100
AcDbSymbolTableRecord
100
AcDbLayerTableRecord
  2
YAKUMONO2
 70
     0
 62
    32
  6
Continuous
370
    -3
390
2FD
347
98
  0
ENDTAB
  0
TABLE
  2
STYLE
  5
3
330
0
100
AcDbSymbolTable
 70
     3
  0
STYLE
  5
11
330
3
100
AcDbSymbolTableRecord
100
AcDbTextStyleTableRecord
  2
Standard
 70
     0
 40
0.0
 41
1.0
 50
0.0
 71
     0
 42
0.2
  3

  4

1001
ACAD
1000
MS Gothic
1071
    32817
  0
STYLE
  5
2F6
330
3
100
AcDbSymbolTableRecord
100
AcDbTextStyleTableRecord
  2
CAD-DL
 70
     0
 40
5.0
 41
1.0
 50
0.0
 71
     0
 42
2.5
  3

  4

1001
ACAD
1000
MS Gothic
1071
    32817
  0
STYLE
  5
2F7
330
3
100
AcDbSymbolTableRecord
100
AcDbTextStyleTableRecord
  2
WAKU
 70
     0
 40
5.0
 41
1.0
 50
0.0
 71
     0
 42
5.0
  3

  4

1001
ACAD
1000
MS Gothic
1071
    32817
  0
ENDTAB
  0
TABLE
  2
VIEW
  5
6
330
0
100
AcDbSymbolTable
 70
     2
  0
ENDTAB
  0
TABLE
  2
UCS
  5
7
330
0
100
AcDbSymbolTable
 70
     0
  0
ENDTAB
  0
TABLE
  2
APPID
  5
9
330
0
100
AcDbSymbolTable
 70
    14
  0
APPID
  5
12
330
9
100
AcDbSymbolTableRecord
100
AcDbRegAppTableRecord
  2
ACAD
 70
     0
  0
APPID
  5
DD
330
9
100
AcDbSymbolTableRecord
100
AcDbRegAppTableRecord
  2
AcadAnnoPO
 70
     0
  0
APPID
  5
DE
330
9
100
AcDbSymbolTableRecord
100
AcDbRegAppTableRecord
  2
AcadAnnotative
 70
     0
  0
APPID
  5
DF
330
9
100
AcDbSymbolTableRecord
100
AcDbRegAppTableRecord
  2
ACAD_DSTYLE_DIMJAG
 70
     0
  0
APPID
  5
E0
330
9
100
AcDbSymbolTableRecord
100
AcDbRegAppTableRecord
  2
ACAD_DSTYLE_DIMTALN
 70
     0
  0
APPID
  5
107
330
9
100
AcDbSymbolTableRecord
100
AcDbRegAppTableRecord
  2
ACAD_MLEADERVER
 70
     0
  0
APPID
  5
1A6
330
9
100
AcDbSymbolTableRecord
100
AcDbRegAppTableRecord
  2
ACAD_NAV_VCDISPLAY
 70
     0
  0
APPID
  5
2FA
330
9
100
AcDbSymbolTableRecord
100
AcDbRegAppTableRecord
  2
ACAD_PSEXT
 70
     0
  0
APPID
  5
2FB
330
9
100
AcDbSymbolTableRecord
100
AcDbRegAppTableRecord
  2
GradientColor1ACI
 70
     0
  0
APPID
  5
2FC
330
9
100
AcDbSymbolTableRecord
100
AcDbRegAppTableRecord
  2
GradientColor2ACI
 70
     0
  0
APPID
  5
456
330
9
100
AcDbSymbolTableRecord
100
AcDbRegAppTableRecord
  2
ACAD_EXEMPT_FROM_CAD_STANDARDS
 70
     0
  0
APPID
  5
68A
330
9
100
AcDbSymbolTableRecord
100
AcDbRegAppTableRecord
  2
ACAECLAYERSTANDARD
 70
     0
  0
APPID
  5
68B
330
9
100
AcDbSymbolTableRecord
100
AcDbRegAppTableRecord
  2
AcCmTransparency
 70
     0
  0
APPID
  5
194C
330
9
100
AcDbSymbolTableRecord
100
AcDbRegAppTableRecord
  2
Acad_TC
 70
     0
  0
ENDTAB
  0
TABLE
  2
DIMSTYLE
  5
A
330
0
100
AcDbSymbolTable
 70
     3
100
AcDbDimStyleTable
 71
     1
340
27
  0
DIMSTYLE
105
27
330
A
100
AcDbSymbolTableRecord
100
AcDbDimStyleTableRecord
  2
Standard
 70
     0
340
11
  0
DIMSTYLE
105
185B
330
A
100
AcDbSymbolTableRecord
100
AcDbDimStyleTableRecord
  2
Annotative
 70
     0
 40
0.0
 41
2.5
 42
0.625
 43
3.75
 44
1.25
 73
     0
 74
     0
 77
     1
 78
     8
140
2.5
141
2.5
143
0.03937007874016
147
0.625
171
     3
172
     1
271
     2
272
     2
274
     3
278
    44
283
     0
284
     8
340
11
1001
AcadAnnotative
1000
AnnotativeData
1002
{
1070
     1
1070
     1
1002
}
1001
ACAD_DSTYLE_DIMJAG
1070
   388
1040
1.5
1001
ACAD_DSTYLE_DIMTALN
1070
   392
1070
     0
  0
DIMSTYLE
105
185C
330
A
100
AcDbSymbolTableRecord
100
AcDbDimStyleTableRecord
  2
ISO-25
 70
     0
 41
2.5
 42
0.625
 43
3.75
 44
1.25
 73
     0
 74
     0
 77
     1
 78
     8
140
2.5
141
2.5
143
0.03937007874016
147
0.625
171
     3
172
     1
271
     2
272
     2
274
     3
278
    44
283
     0
284
     8
340
11
  0
ENDTAB
  0
TABLE
  2
BLOCK_RECORD
  5
1
330
0
100
AcDbSymbolTable
 70
     4
  0
BLOCK_RECORD
  5
1F
102
{ACAD_XDICTIONARY
360
15D
102
}
330
1
100
AcDbSymbolTableRecord
100
AcDbBlockTableRecord
  2
*Model_Space
340
22
 70
     0
280
     1
281
     0
  0
BLOCK_RECORD
  5
58
330
1
100
AcDbSymbolTableRecord
100
AcDbBlockTableRecord
  2
*Paper_Space
340
59
 70
     0
280
     1
281
     0
  0
BLOCK_RECORD
  5
5D
330
1
100
AcDbSymbolTableRecord
100
AcDbBlockTableRecord
  2
*Paper_Space0
340
5E
 70
     0
280
     1
281
     0
  0
BLOCK_RECORD
  5
17DF
330
1
100
AcDbSymbolTableRecord
100
AcDbBlockTableRecord
  2
平頭L45
340
0
102
{BLKREFS
331
185E
102
}
 70
     4
280
     1
281
     0
  0
BLOCK_RECORD
  5
185D
102
{ACAD_XDICTIONARY
360
185F
102
}
330
1
100
AcDbSymbolTableRecord
100
AcDbBlockTableRecord
  2
A$C24e3fc27
340
0
 70
     4
280
     1
281
     0
  0
BLOCK_RECORD
  5
1862
330
1
100
AcDbSymbolTableRecord
100
AcDbBlockTableRecord
  2
平頭L25
340
0
102
{BLKREFS
331
18AE
331
18AF
331
18B1
102
}
 70
     4
280
     1
281
     0
  0
ENDTAB
  0
ENDSEC
  0
SECTION
  2
BLOCKS
  0
BLOCK
  5
20
330
1F
100
AcDbEntity
  8
0
100
AcDbBlockBegin
  2
*Model_Space
 70
     0
 10
0.0
 20
0.0
 30
0.0
  3
*Model_Space
  1

  0
ENDBLK
  5
21
330
1F
100
AcDbEntity
  8
0
100
AcDbBlockEnd
  0
BLOCK
  5
5A
330
58
100
AcDbEntity
 67
     1
  8
0
100
AcDbBlockBegin
  2
*Paper_Space
 70
     0
 10
0.0
 20
0.0
 30
0.0
  3
*Paper_Space
  1

  0
ENDBLK
  5
5B
330
58
100
AcDbEntity
 67
     1
  8
0
100
AcDbBlockEnd
  0
BLOCK
  5
5F
330
5D
100
AcDbEntity
 67
     1
  8
0
100
AcDbBlockBegin
  2
*Paper_Space0
 70
     0
 10
0.0
 20
0.0
 30
0.0
  3
*Paper_Space0
  1

  0
ENDBLK
  5
60
330
5D
100
AcDbEntity
 67
     1
  8
0
100
AcDbBlockEnd
  0
BLOCK
  5
17E0
330
17DF
100
AcDbEntity
  8
0
100
AcDbBlockBegin
  2
平頭L45
 70
     0
 10
0.0
 20
0.0
 30
0.0
  3
平頭L45
  1

  0
LINE
  5
17E1
330
17DF
100
AcDbEntity
  8
BISUKUGI
100
AcDbLine
 10
2.400128945631422
 20
-16.57531914894935
 30
0.0
 11
1.436299158398014
 21
-16.01885176184441
 31
0.0
  0
LINE
  5
17E2
330
17DF
100
AcDbEntity
  8
BISUKUGI
100
AcDbLine
 10
1.436299158398014
 20
-16.01885176184441
 30
0.0
 11
-1.436041267130804
 21
-17.14696495718817
 31
0.0
  0
LINE
  5
17E3
330
17DF
100
AcDbEntity
  8
BISUKUGI
100
AcDbLine
 10
-1.436041267130804
 20
-17.14696495718817
 30
0.0
 11
-2.399871054367849
 21
-17.69872340427537
 31
0.0
  0
LINE
  5
17E4
330
17DF
100
AcDbEntity
  8
BISUKUGI
100
AcDbLine
 10
1.436299158398014
 20
-17.12707759603654
 30
0.0
 11
2.400128945631422
 21
-16.57531914894935
 31
0.0
  0
LINE
  5
17E5
330
17DF
100
AcDbEntity
  8
BISUKUGI
100
AcDbLine
 10
2.400128945631422
 20
-16.57531914894935
 30
0.0
 11
-2.399871054367849
 21
-17.69872340427537
 31
0.0
  0
LINE
  5
17E6
330
17DF
100
AcDbEntity
  8
BISUKUGI
100
AcDbLine
 10
-1.436041267130804
 20
-17.14696495719545
 30
0.0
 11
-1.436041267130804
 21
-14.93859504671127
 31
0.0
  0
LINE
  5
17E7
330
17DF
100
AcDbEntity
  8
BISUKUGI
100
AcDbLine
 10
1.436299158398014
 20
-16.01885176184441
 30
0.0
 11
1.436299158398014
 21
-13.81048185135296
 31
0.0
  0
LINE
  5
17E8
330
17DF
100
AcDbEntity
  8
BISUKUGI
100
AcDbLine
 10
2.400128945631422
 20
-13.25872340427304
 30
0.0
 11
-2.399871054367849
 21
-14.38212765959178
 31
0.0
  0
LINE
  5
17E9
330
17DF
100
AcDbEntity
  8
BISUKUGI
100
AcDbLine
 10
-1.436041267130804
 20
-14.93859504671127
 30
0.0
 11
1.436299158398014
 21
-13.81048185135296
 31
0.0
  0
LINE
  5
17EA
330
17DF
100
AcDbEntity
  8
BISUKUGI
100
AcDbLine
 10
-2.399871054367849
 20
-14.38212765959178
 30
0.0
 11
-1.436041267130804
 21
-14.93859504671127
 31
0.0
  0
LINE
  5
17EB
330
17DF
100
AcDbEntity
  8
BISUKUGI
100
AcDbLine
 10
-1.436041267130804
 20
-13.83036921251187
 30
0.0
 11
-2.399871054367849
 21
-14.38212765959178
 31
0.0
  0
LINE
  5
17EC
330
17DF
100
AcDbEntity
  8
BISUKUGI
100
AcDbLine
 10
2.400128945631422
 20
-19.89191489363293
 30
0.0
 11
1.436299158398014
 21
-19.33544750652072
 31
0.0
  0
LINE
  5
17ED
330
17DF
100
AcDbEntity
  8
BISUKUGI
100
AcDbLine
 10
1.436299158398014
 20
-19.33544750652072
 30
0.0
 11
-1.436041267130804
 21
-20.46356070187176
 31
0.0
  0
LINE
  5
17EE
330
17DF
100
AcDbEntity
  8
BISUKUGI
100
AcDbLine
 10
-1.436041267130804
 20
-20.46356070187176
 30
0.0
 11
-2.399871054367849
 21
-21.01531914895168
 31
0.0
  0
LINE
  5
17EF
330
17DF
100
AcDbEntity
  8
BISUKUGI
100
AcDbLine
 10
-2.399871054367849
 20
-21.01531914895168
 30
0.0
 11
-1.436041267130804
 21
-21.57178653606388
 31
0.0
  0
LINE
  5
17F0
330
17DF
100
AcDbEntity
  8
BISUKUGI
100
AcDbLine
 10
-1.436041267130804
 20
-21.57178653606388
 30
0.0
 11
1.436299158398014
 21
-20.44367334071285
 31
0.0
  0
LINE
  5
17F1
330
17DF
100
AcDbEntity
  8
BISUKUGI
100
AcDbLine
 10
1.436299158398014
 20
-20.44367334071285
 30
0.0
 11
2.400128945631422
 21
-19.89191489363293
 31
0.0
  0
LINE
  5
17F2
330
17DF
100
AcDbEntity
  8
BISUKUGI
100
AcDbLine
 10
2.400128945631422
 20
-19.89191489363293
 30
0.0
 11
-2.399871054367849
 21
-21.01531914895168
 31
0.0
  0
LINE
  5
17F3
330
17DF
100
AcDbEntity
  8
BISUKUGI
100
AcDbLine
 10
-2.399871054367849
 20
-17.69872340427537
 30
0.0
 11
-1.436041267130804
 21
-18.25519079138757
 31
0.0
  0
LINE
  5
17F4
330
17DF
100
AcDbEntity
  8
BISUKUGI
100
AcDbLine
 10
-1.436041267130804
 20
-18.25519079138757
 30
0.0
 11
1.436299158398014
 21
-17.12707759603654
 31
0.0
  0
LINE
  5
17F5
330
17DF
100
AcDbEntity
  8
BISUKUGI
100
AcDbLine
 10
1.436299158398014
 20
-22.65204325119703
 30
0.0
 11
1.436299158398014
 21
-20.44367334071285
 31
0.0
  0
LINE
  5
17F6
330
17DF
100
AcDbEntity
  8
BISUKUGI
100
AcDbLine
 10
1.436299158398014
 20
-19.33544750652072
 30
0.0
 11
1.436299158398014
 21
-17.12707759603654
 31
0.0
  0
LINE
  5
17F7
330
17DF
100
AcDbEntity
  8
BISUKUGI
100
AcDbLine
 10
-1.436041267130804
 20
-23.78015644655534
 30
0.0
 11
-1.436041267130804
 21
-21.57178653606388
 31
0.0
  0
LINE
  5
17F8
330
17DF
100
AcDbEntity
  8
BISUKUGI
100
AcDbLine
 10
-1.436041267130804
 20
-20.46356070187176
 30
0.0
 11
-1.436041267130804
 21
-18.25519079138757
 31
0.0
  0
LINE
  5
17F9
330
17DF
100
AcDbEntity
  8
BISUKUGI
100
AcDbLine
 10
2.400128945631422
 20
-23.20851063830923
 30
0.0
 11
1.436299158398014
 21
-22.65204325119703
 31
0.0
  0
LINE
  5
17FA
330
17DF
100
AcDbEntity
  8
BISUKUGI
100
AcDbLine
 10
1.436299158398014
 20
-22.65204325119703
 30
0.0
 11
-1.436041267130804
 21
-23.78015644654806
 31
0.0
  0
LINE
  5
17FB
330
17DF
100
AcDbEntity
  8
BISUKUGI
100
AcDbLine
 10
-1.436041267130804
 20
-23.78015644654806
 30
0.0
 11
-2.399871054367849
 21
-24.33191489362798
 31
0.0
  0
LINE
  5
17FC
330
17DF
100
AcDbEntity
  8
BISUKUGI
100
AcDbLine
 10
-2.399871054367849
 20
-24.33191489362798
 30
0.0
 11
-1.436041267130804
 21
-24.88838228074019
 31
0.0
  0
LINE
  5
17FD
330
17DF
100
AcDbEntity
  8
BISUKUGI
100
AcDbLine
 10
-1.436041267130804
 20
-24.88838228074019
 30
0.0
 11
1.436299158398014
 21
-23.76026908538916
 31
0.0
  0
LINE
  5
17FE
330
17DF
100
AcDbEntity
  8
BISUKUGI
100
AcDbLine
 10
1.436299158398014
 20
-23.76026908538916
 30
0.0
 11
2.400128945631422
 21
-23.20851063830923
 31
0.0
  0
LINE
  5
17FF
330
17DF
100
AcDbEntity
  8
BISUKUGI
100
AcDbLine
 10
2.400128945631422
 20
-23.20851063830923
 30
0.0
 11
-2.399871054367849
 21
-24.33191489362798
 31
0.0
  0
LINE
  5
1800
330
17DF
100
AcDbEntity
  8
BISUKUGI
100
AcDbLine
 10
-1.436041267130804
 20
-27.09675219123165
 30
0.0
 11
-1.436041267130804
 21
-24.88838228074019
 31
0.0
  0
LINE
  5
1801
330
17DF
100
AcDbEntity
  8
BISUKUGI
100
AcDbLine
 10
1.436299158398014
 20
-25.96863899588061
 30
0.0
 11
1.436299158398014
 21
-23.76026908538916
 31
0.0
  0
LINE
  5
1802
330
17DF
100
AcDbEntity
  8
BISUKUGI
100
AcDbLine
 10
2.400128945631422
 20
-26.52510638299282
 30
0.0
 11
1.436299158398014
 21
-25.96863899588061
 31
0.0
  0
LINE
  5
1803
330
17DF
100
AcDbEntity
  8
BISUKUGI
100
AcDbLine
 10
1.436299158398014
 20
-25.96863899588061
 30
0.0
 11
-1.436041267130804
 21
-27.09675219123165
 31
0.0
  0
LINE
  5
1804
330
17DF
100
AcDbEntity
  8
BISUKUGI
100
AcDbLine
 10
-1.436041267130804
 20
-27.09675219123165
 30
0.0
 11
-2.399871054367849
 21
-27.64851063830429
 31
0.0
  0
LINE
  5
1805
330
17DF
100
AcDbEntity
  8
BISUKUGI
100
AcDbLine
 10
-2.399871054367849
 20
-27.64851063830429
 30
0.0
 11
-1.436041267130804
 21
-28.20497802542377
 31
0.0
  0
LINE
  5
1806
330
17DF
100
AcDbEntity
  8
BISUKUGI
100
AcDbLine
 10
-1.436041267130804
 20
-28.20497802542377
 30
0.0
 11
1.436299158398014
 21
-27.07686483006546
 31
0.0
  0
LINE
  5
1807
330
17DF
100
AcDbEntity
  8
BISUKUGI
100
AcDbLine
 10
1.436299158398014
 20
-27.07686483006546
 30
0.0
 11
2.400128945631422
 21
-26.52510638299282
 31
0.0
  0
LINE
  5
1808
330
17DF
100
AcDbEntity
  8
BISUKUGI
100
AcDbLine
 10
2.400128945631422
 20
-26.52510638299282
 30
0.0
 11
-2.399871054367849
 21
-27.64851063830429
 31
0.0
  0
LINE
  5
1809
330
17DF
100
AcDbEntity
  8
BISUKUGI
100
AcDbLine
 10
1.436299158398014
 20
-29.28523474055692
 30
0.0
 11
1.436299158398014
 21
-27.07686483006546
 31
0.0
  0
LINE
  5
180A
330
17DF
100
AcDbEntity
  8
BISUKUGI
100
AcDbLine
 10
0.9632929476351819
 20
-43.17446808511886
 30
0.0
 11
0.6236161628980881
 21
-42.97835560201201
 31
0.0
  0
LINE
  5
180B
330
17DF
100
AcDbEntity
  8
BISUKUGI
100
AcDbLine
 10
2.400128945631422
 20
-39.79148936170532
 30
0.0
 11
1.436299158398014
 21
-39.23502197459311
 31
0.0
  0
LINE
  5
180C
330
17DF
100
AcDbEntity
  8
BISUKUGI
100
AcDbLine
 10
1.436299158398014
 20
-39.23502197459311
 30
0.0
 11
-1.436041267130804
 21
-40.36313516994414
 31
0.0
  0
LINE
  5
180D
330
17DF
100
AcDbEntity
  8
BISUKUGI
100
AcDbLine
 10
-1.436041267130804
 20
-40.36313516994414
 30
0.0
 11
-2.399871054367849
 21
-40.91489361701678
 31
0.0
  0
LINE
  5
180E
330
17DF
100
AcDbEntity
  8
BISUKUGI
100
AcDbLine
 10
-2.399871054367849
 20
-40.91489361701678
 30
0.0
 11
-1.436041267130804
 21
-41.47136100413627
 31
0.0
  0
LINE
  5
180F
330
17DF
100
AcDbEntity
  8
BISUKUGI
100
AcDbLine
 10
-1.436041267130804
 20
-41.47136100413627
 30
0.0
 11
1.436299158398014
 21
-40.34324780877796
 31
0.0
  0
LINE
  5
1810
330
17DF
100
AcDbEntity
  8
BISUKUGI
100
AcDbLine
 10
1.436299158398014
 20
-40.34324780877796
 30
0.0
 11
2.400128945631422
 21
-39.79148936170532
 31
0.0
  0
LINE
  5
1811
330
17DF
100
AcDbEntity
  8
BISUKUGI
100
AcDbLine
 10
2.400128945631422
 20
-39.79148936170532
 30
0.0
 11
-2.399871054367849
 21
-40.91489361701678
 31
0.0
  0
LINE
  5
1812
330
17DF
100
AcDbEntity
  8
BISUKUGI
100
AcDbLine
 10
2.400128945631422
 20
-36.47489361702174
 30
0.0
 11
-2.399871054367849
 21
-37.59829787234048
 31
0.0
  0
LINE
  5
1813
330
17DF
100
AcDbEntity
  8
BISUKUGI
100
AcDbLine
 10
1.436299158398014
 20
-37.02665206410165
 30
0.0
 11
2.400128945631422
 21
-36.47489361702174
 31
0.0
  0
LINE
  5
1814
330
17DF
100
AcDbEntity
  8
BISUKUGI
100
AcDbLine
 10
-1.436041267130804
 20
-38.15476525945269
 30
0.0
 11
1.436299158398014
 21
-37.02665206410165
 31
0.0
  0
LINE
  5
1815
330
17DF
100
AcDbEntity
  8
BISUKUGI
100
AcDbLine
 10
-2.399871054367849
 20
-37.59829787234048
 30
0.0
 11
-1.436041267130804
 21
-38.15476525945269
 31
0.0
  0
LINE
  5
1816
330
17DF
100
AcDbEntity
  8
BISUKUGI
100
AcDbLine
 10
-1.436041267130804
 20
-37.04653942526056
 30
0.0
 11
-2.399871054367849
 21
-37.59829787234048
 31
0.0
  0
LINE
  5
1817
330
17DF
100
AcDbEntity
  8
BISUKUGI
100
AcDbLine
 10
1.436299158398014
 20
-35.91842622990953
 30
0.0
 11
-1.436041267130804
 21
-37.04653942526056
 31
0.0
  0
LINE
  5
1818
330
17DF
100
AcDbEntity
  8
BISUKUGI
100
AcDbLine
 10
2.400128945631422
 20
-36.47489361702174
 30
0.0
 11
1.436299158398014
 21
-35.91842622990953
 31
0.0
  0
LINE
  5
1819
330
17DF
100
AcDbEntity
  8
BISUKUGI
100
AcDbLine
 10
2.400128945631422
 20
-33.15829787234543
 30
0.0
 11
1.436299158398014
 21
-32.60183048523322
 31
0.0
  0
LINE
  5
181A
330
17DF
100
AcDbEntity
  8
BISUKUGI
100
AcDbLine
 10
1.436299158398014
 20
-32.60183048523322
 30
0.0
 11
-1.436041267130804
 21
-33.72994368058426
 31
0.0
  0
LINE
  5
181B
330
17DF
100
AcDbEntity
  8
BISUKUGI
100
AcDbLine
 10
-1.436041267130804
 20
-33.72994368058426
 30
0.0
 11
-2.399871054367849
 21
-34.28170212766417
 31
0.0
  0
LINE
  5
181C
330
17DF
100
AcDbEntity
  8
BISUKUGI
100
AcDbLine
 10
-2.399871054367849
 20
-34.28170212766417
 30
0.0
 11
-1.436041267130804
 21
-34.83816951477638
 31
0.0
  0
LINE
  5
181D
330
17DF
100
AcDbEntity
  8
BISUKUGI
100
AcDbLine
 10
1.436299158398014
 20
-33.71005631942535
 30
0.0
 11
2.400128945631422
 21
-33.15829787234543
 31
0.0
  0
LINE
  5
181E
330
17DF
100
AcDbEntity
  8
BISUKUGI
100
AcDbLine
 10
2.400128945631422
 20
-33.15829787234543
 30
0.0
 11
-2.399871054367849
 21
-34.28170212766417
 31
0.0
  0
LINE
  5
181F
330
17DF
100
AcDbEntity
  8
BISUKUGI
100
AcDbLine
 10
2.400128945631422
 20
-29.84170212766912
 30
0.0
 11
1.436299158398014
 21
-29.28523474055692
 31
0.0
  0
LINE
  5
1820
330
17DF
100
AcDbEntity
  8
BISUKUGI
100
AcDbLine
 10
1.436299158398014
 20
-29.28523474055692
 30
0.0
 11
-1.436041267130804
 21
-30.41334793590795
 31
0.0
  0
LINE
  5
1821
330
17DF
100
AcDbEntity
  8
BISUKUGI
100
AcDbLine
 10
-1.436041267130804
 20
-30.41334793590795
 30
0.0
 11
-2.399871054367849
 21
-30.96510638298787
 31
0.0
  0
LINE
  5
1822
330
17DF
100
AcDbEntity
  8
BISUKUGI
100
AcDbLine
 10
-2.399871054367849
 20
-30.96510638298787
 30
0.0
 11
-1.436041267130804
 21
-31.52157377010008
 31
0.0
  0
LINE
  5
1823
330
17DF
100
AcDbEntity
  8
BISUKUGI
100
AcDbLine
 10
-1.436041267130804
 20
-31.52157377010008
 30
0.0
 11
1.436299158398014
 21
-30.39346057474904
 31
0.0
  0
LINE
  5
1824
330
17DF
100
AcDbEntity
  8
BISUKUGI
100
AcDbLine
 10
1.436299158398014
 20
-30.39346057474904
 30
0.0
 11
2.400128945631422
 21
-29.84170212766912
 31
0.0
  0
LINE
  5
1825
330
17DF
100
AcDbEntity
  8
BISUKUGI
100
AcDbLine
 10
2.400128945631422
 20
-29.84170212766912
 30
0.0
 11
-2.399871054367849
 21
-30.96510638298787
 31
0.0
  0
LINE
  5
1826
330
17DF
100
AcDbEntity
  8
BISUKUGI
100
AcDbLine
 10
1.436299158398014
 20
-39.23502197459311
 30
0.0
 11
1.436299158398014
 21
-37.02665206410165
 31
0.0
  0
LINE
  5
1827
330
17DF
100
AcDbEntity
  8
BISUKUGI
100
AcDbLine
 10
1.436299158398014
 20
-35.91842622990953
 30
0.0
 11
1.436299158398014
 21
-33.71005631942535
 31
0.0
  0
LINE
  5
1828
330
17DF
100
AcDbEntity
  8
BISUKUGI
100
AcDbLine
 10
-1.436041267130804
 20
-40.36313516994414
 30
0.0
 11
-1.436041267130804
 21
-38.15476525945269
 31
0.0
  0
LINE
  5
1829
330
17DF
100
AcDbEntity
  8
BISUKUGI
100
AcDbLine
 10
1.436299158398014
 20
-40.34324780877796
 30
0.0
 11
0.6236161628980881
 21
-42.97835560201201
 31
0.0
  0
LINE
  5
182A
330
17DF
100
AcDbEntity
  8
BISUKUGI
100
AcDbLine
 10
1.436299158398014
 20
-32.60183048523322
 30
0.0
 11
1.436299158398014
 21
-30.39346057474904
 31
0.0
  0
LINE
  5
182B
330
17DF
100
AcDbEntity
  8
BISUKUGI
100
AcDbLine
 10
-1.436041267130804
 20
-37.04653942526784
 30
0.0
 11
-1.436041267130804
 21
-34.83816951477638
 31
0.0
  0
LINE
  5
182C
330
17DF
100
AcDbEntity
  8
BISUKUGI
100
AcDbLine
 10
-1.436041267130804
 20
-33.72994368058426
 30
0.0
 11
-1.436041267130804
 21
-31.52157377010008
 31
0.0
  0
LINE
  5
182D
330
17DF
100
AcDbEntity
  8
BISUKUGI
100
AcDbLine
 10
-1.436041267130804
 20
-30.41334793590795
 30
0.0
 11
-1.436041267130804
 21
-28.20497802542377
 31
0.0
  0
LINE
  5
182E
330
17DF
100
AcDbEntity
  8
BISUKUGI
100
AcDbLine
 10
-1.436041267130804
 20
-34.83816951477638
 30
0.0
 11
1.436299158398014
 21
-33.71005631942535
 31
0.0
  0
LINE
  5
182F
330
17DF
100
AcDbEntity
  8
BISUKUGI
100
AcDbLine
 10
-1.710509352237295
 20
-0.5799999999944703
 30
0.0
 11
-1.710509352248209
 21
-4.369333728718629
 31
0.0
  0
LINE
  5
1830
330
17DF
100
AcDbEntity
  8
BISUKUGI
100
AcDbLine
 10
1.710767243504506
 20
-3.753191489377059
 30
0.0
 11
-1.436041267130804
 21
-4.212210462334041
 31
0.0
  0
LINE
  5
1831
330
17DF
100
AcDbEntity
  8
BISUKUGI
100
AcDbLine
 10
1.436299158398014
 20
-9.385660272484528
 30
0.0
 11
1.436299158398014
 21
-7.177290361993073
 31
0.0
  0
LINE
  5
1832
330
17DF
100
AcDbEntity
  8
BISUKUGI
100
AcDbLine
 10
-1.436041267130804
 20
-10.51377346783556
 30
0.0
 11
-1.436041267130804
 21
-8.305403557351382
 31
0.0
  0
LINE
  5
1833
330
17DF
100
AcDbEntity
  8
BISUKUGI
100
AcDbLine
 10
1.436299158398014
 20
-4.828706952874199
 30
0.0
 11
1.436299158398014
 21
-6.069064527808222
 31
0.0
  0
LINE
  5
1834
330
17DF
100
AcDbEntity
  8
BISUKUGI
100
AcDbLine
 10
1.710767243500868
 20
-3.75319148939161
 30
0.0
 11
1.436299158398014
 21
-4.828706952874199
 31
0.0
  0
LINE
  5
1835
330
17DF
100
AcDbEntity
  8
BISUKUGI
100
AcDbLine
 10
2.400128945631422
 20
-6.625531914920429
 30
0.0
 11
-2.399871054367849
 21
-7.7489361702319
 31
0.0
  0
LINE
  5
1836
330
17DF
100
AcDbEntity
  8
BISUKUGI
100
AcDbLine
 10
1.436299158398014
 20
-7.177290361993073
 30
0.0
 11
2.400128945631422
 21
-6.625531914920429
 31
0.0
  0
LINE
  5
1837
330
17DF
100
AcDbEntity
  8
BISUKUGI
100
AcDbLine
 10
-1.436041267130804
 20
-8.305403557351382
 30
0.0
 11
1.436299158398014
 21
-7.177290361993073
 31
0.0
  0
LINE
  5
1838
330
17DF
100
AcDbEntity
  8
BISUKUGI
100
AcDbLine
 10
-2.399871054367849
 20
-7.7489361702319
 30
0.0
 11
-1.436041267130804
 21
-8.305403557351382
 31
0.0
  0
LINE
  5
1839
330
17DF
100
AcDbEntity
  8
BISUKUGI
100
AcDbLine
 10
-1.436041267130804
 20
-7.197177723159256
 30
0.0
 11
-2.399871054367849
 21
-7.7489361702319
 31
0.0
  0
LINE
  5
183A
330
17DF
100
AcDbEntity
  8
BISUKUGI
100
AcDbLine
 10
1.436299158398014
 20
-6.069064527808222
 30
0.0
 11
-1.436041267130804
 21
-7.197177723159256
 31
0.0
  0
LINE
  5
183B
330
17DF
100
AcDbEntity
  8
BISUKUGI
100
AcDbLine
 10
2.400128945631422
 20
-6.625531914920429
 30
0.0
 11
1.436299158398014
 21
-6.069064527808222
 31
0.0
  0
LINE
  5
183C
330
17DF
100
AcDbEntity
  8
BISUKUGI
100
AcDbLine
 10
2.400128945631422
 20
-9.942127659596735
 30
0.0
 11
-2.399871054367849
 21
-11.06553191491548
 31
0.0
  0
LINE
  5
183D
330
17DF
100
AcDbEntity
  8
BISUKUGI
100
AcDbLine
 10
1.436299158398014
 20
-10.49388610667665
 30
0.0
 11
2.400128945631422
 21
-9.942127659596735
 31
0.0
  0
LINE
  5
183E
330
17DF
100
AcDbEntity
  8
BISUKUGI
100
AcDbLine
 10
-1.436041267130804
 20
-11.62199930202769
 30
0.0
 11
1.436299158398014
 21
-10.49388610667665
 31
0.0
  0
LINE
  5
183F
330
17DF
100
AcDbEntity
  8
BISUKUGI
100
AcDbLine
 10
-2.399871054367849
 20
-11.06553191491548
 30
0.0
 11
-1.436041267130804
 21
-11.62199930202769
 31
0.0
  0
LINE
  5
1840
330
17DF
100
AcDbEntity
  8
BISUKUGI
100
AcDbLine
 10
-1.436041267130804
 20
-10.51377346783556
 30
0.0
 11
-2.399871054367849
 21
-11.06553191491548
 31
0.0
  0
LINE
  5
1841
330
17DF
100
AcDbEntity
  8
BISUKUGI
100
AcDbLine
 10
1.436299158398014
 20
-9.385660272484528
 30
0.0
 11
-1.436041267130804
 21
-10.51377346783556
 31
0.0
  0
LINE
  5
1842
330
17DF
100
AcDbEntity
  8
BISUKUGI
100
AcDbLine
 10
2.400128945631422
 20
-9.942127659596735
 30
0.0
 11
1.436299158398014
 21
-9.385660272484528
 31
0.0
  0
LINE
  5
1843
330
17DF
100
AcDbEntity
  8
BISUKUGI
100
AcDbLine
 10
-1.436041267130804
 20
-4.828706952874199
 30
0.0
 11
-1.972211479901034
 21
-4.51914893619687
 31
0.0
  0
LINE
  5
1844
330
17DF
100
AcDbEntity
  8
BISUKUGI
100
AcDbLine
 10
-1.972211479901034
 20
-4.51914893619687
 30
0.0
 11
-1.436041267130804
 21
-4.212210462334041
 31
0.0
  0
LINE
  5
1845
330
17DF
100
AcDbEntity
  8
BISUKUGI
100
AcDbLine
 10
1.710767243504506
 20
-3.75319148939161
 30
0.0
 11
1.436299158398014
 21
-3.910314755776198
 31
0.0
  0
LINE
  5
1846
330
17DF
100
AcDbEntity
  8
BISUKUGI
100
AcDbLine
 10
1.436299158398014
 20
-3.910314755776198
 30
0.0
 11
-1.436041267130804
 21
-4.828706952874199
 31
0.0
  0
LINE
  5
1847
330
17DF
100
AcDbEntity
  8
BISUKUGI
100
AcDbLine
 10
1.710767243500868
 20
-3.75319148939161
 30
0.0
 11
-1.972211479901034
 21
-4.51914893619687
 31
0.0
  0
LINE
  5
1848
330
17DF
100
AcDbEntity
  8
BISUKUGI
100
AcDbLine
 10
-1.436041267130804
 20
-7.197177723159256
 30
0.0
 11
-1.436041267130804
 21
-4.828706952874199
 31
0.0
  0
LINE
  5
1849
330
17DF
100
AcDbEntity
  8
BISUKUGI
100
AcDbLine
 10
1.710767243504506
 20
-0.5799999999944703
 30
0.0
 11
1.710767243489954
 21
-3.753191489377059
 31
0.0
  0
LINE
  5
184A
330
17DF
100
AcDbEntity
  8
BISUKUGI
100
AcDbLine
 10
-1.710509352237295
 20
-0.5799999999944703
 30
0.0
 11
1.710767243504506
 21
-0.5799999999944703
 31
0.0
  0
LINE
  5
184B
330
17DF
100
AcDbEntity
  8
BISUKUGI
100
AcDbLine
 10
3.750930610636828
 20
1.0
 30
0.0
 11
-3.717969113518165
 21
1.000000000000909
 31
0.0
  0
LINE
  5
184C
330
17DF
100
AcDbEntity
  8
BISUKUGI
100
AcDbLine
 10
3.750128945633605
 20
0.0
 30
0.0
 11
-3.750128945633605
 21
0.0
 31
0.0
  0
LINE
  5
184D
330
17DF
100
AcDbEntity
  8
BISUKUGI
100
AcDbLine
 10
-1.710509352237295
 20
-0.5799999999944703
 30
0.0
 11
-2.580509352236276
 21
0.0
 31
0.0
  0
LINE
  5
184E
330
17DF
100
AcDbEntity
  8
BISUKUGI
100
AcDbLine
 10
1.710767243504506
 20
-0.5799999999944703
 30
0.0
 11
2.580767243503487
 21
0.0
 31
0.0
  0
LINE
  5
184F
330
17DF
100
AcDbEntity
  8
BISUKUGI
100
AcDbLine
 10
-1.436041267130804
 20
-13.83036921251187
 30
0.0
 11
-1.436041267130804
 21
-11.62199930202769
 31
0.0
  0
LINE
  5
1850
330
17DF
100
AcDbEntity
  8
BISUKUGI
100
AcDbLine
 10
1.436299158398014
 20
-12.70225601716811
 30
0.0
 11
1.436299158398014
 21
-10.49388610667665
 31
0.0
  0
LINE
  5
1851
330
17DF
100
AcDbEntity
  8
BISUKUGI
100
AcDbLine
 10
1.436299158398014
 20
-13.81048185135296
 30
0.0
 11
2.400128945631422
 21
-13.25872340427304
 31
0.0
  0
LINE
  5
1852
330
17DF
100
AcDbEntity
  8
BISUKUGI
100
AcDbLine
 10
1.436299158398014
 20
-12.70225601716811
 30
0.0
 11
-1.436041267130804
 21
-13.83036921251187
 31
0.0
  0
LINE
  5
1853
330
17DF
100
AcDbEntity
  8
BISUKUGI
100
AcDbLine
 10
2.400128945631422
 20
-13.25872340427304
 30
0.0
 11
1.436299158398014
 21
-12.70225601716811
 31
0.0
  0
LINE
  5
1854
330
17DF
100
AcDbEntity
  8
BISUKUGI
100
AcDbLine
 10
-0.3748271632616706
 20
-43.94042553192412
 30
0.0
 11
0.9632929476351819
 21
-43.17446808511886
 31
0.0
  0
LINE
  5
1855
330
17DF
100
AcDbEntity
  8
BISUKUGI
100
AcDbLine
 10
0.6236161628980881
 20
-42.97835560201201
 30
0.0
 11
-0.3748271632616706
 21
-43.94042553192412
 31
0.0
  0
LINE
  5
1856
330
17DF
100
AcDbEntity
  8
BISUKUGI
100
AcDbLine
 10
0.0001289456336053
 20
-45.0
 30
0.0
 11
-1.436041267130804
 21
-41.44364442809456
 31
0.0
  0
LINE
  5
1857
330
17DF
100
AcDbEntity
  8
BISUKUGI
100
AcDbLine
 10
0.477347163435752
 20
-43.4526298055207
 30
0.0
 11
0.0001289456336053
 21
-45.0
 31
0.0
  0
ARC
  5
1858
330
17DF
100
AcDbEntity
  8
BISUKUGI
100
AcDbCircle
 10
-3.750128945633605
 20
0.5
 30
0.0
 40
0.5
100
AcDbArc
 50
86.31939162205268
 51
270.0
  0
ARC
  5
1859
330
17DF
100
AcDbEntity
  8
BISUKUGI
100
AcDbCircle
 10
3.750128945633605
 20
0.5
 30
0.0
 40
0.5
100
AcDbArc
 50
270.0
 51
90.0
  0
ENDBLK
  5
185A
330
17DF
100
AcDbEntity
  8
0
100
AcDbBlockEnd
  0
BLOCK
  5
1860
330
185D
100
AcDbEntity
  8
0
 48
0.2
100
AcDbBlockBegin
  2
A$C24e3fc27
 70
     0
 10
0.0
 20
0.0
 30
0.0
  3
A$C24e3fc27
  1

  0
INSERT
  5
185E
330
185D
100
AcDbEntity
  8
0
100
AcDbBlockReference
  2
平頭L45
 10
4.250128945633605
 20
45.0
 30
0.0
  0
ENDBLK
  5
1861
330
185D
100
AcDbEntity
  8
0
 48
0.2
100
AcDbBlockEnd
  0
BLOCK
  5
1863
330
1862
100
AcDbEntity
  8
0
100
AcDbBlockBegin
  2
平頭L25
 70
     0
 10
0.0
 20
0.0
 30
0.0
  3
平頭L25
  1

  0
LINE
  5
1864
330
1862
100
AcDbEntity
  8
BISUKUGI
100
AcDbLine
 10
0.9632929476676963
 20
-23.17446808511795
 30
0.0
 11
0.6236161629306026
 21
-22.97835560201111
 31
0.0
  0
LINE
  5
1865
330
1862
100
AcDbEntity
  8
BISUKUGI
100
AcDbLine
 10
2.400128945663936
 20
-19.79148936170441
 30
0.0
 11
1.436299158430529
 21
-19.2350219745922
 31
0.0
  0
LINE
  5
1866
330
1862
100
AcDbEntity
  8
BISUKUGI
100
AcDbLine
 10
1.436299158430529
 20
-19.2350219745922
 30
0.0
 11
-1.436041267098289
 21
-20.36313516994324
 31
0.0
  0
LINE
  5
1867
330
1862
100
AcDbEntity
  8
BISUKUGI
100
AcDbLine
 10
-1.436041267098289
 20
-20.36313516994324
 30
0.0
 11
-2.399871054335335
 21
-20.91489361701588
 31
0.0
  0
LINE
  5
1868
330
1862
100
AcDbEntity
  8
BISUKUGI
100
AcDbLine
 10
-2.399871054335335
 20
-20.91489361701588
 30
0.0
 11
-1.436041267098289
 21
-21.47136100413536
 31
0.0
  0
LINE
  5
1869
330
1862
100
AcDbEntity
  8
BISUKUGI
100
AcDbLine
 10
-1.436041267098289
 20
-21.47136100413536
 30
0.0
 11
1.436299158430529
 21
-20.34324780877705
 31
0.0
  0
LINE
  5
186A
330
1862
100
AcDbEntity
  8
BISUKUGI
100
AcDbLine
 10
1.436299158430529
 20
-20.34324780877705
 30
0.0
 11
2.400128945663936
 21
-19.79148936170441
 31
0.0
  0
LINE
  5
186B
330
1862
100
AcDbEntity
  8
BISUKUGI
100
AcDbLine
 10
2.400128945663936
 20
-19.79148936170441
 30
0.0
 11
-2.399871054335335
 21
-20.91489361701588
 31
0.0
  0
LINE
  5
186C
330
1862
100
AcDbEntity
  8
BISUKUGI
100
AcDbLine
 10
2.400128945663936
 20
-16.47489361702082
 30
0.0
 11
-2.399871054335335
 21
-17.59829787233957
 31
0.0
  0
LINE
  5
186D
330
1862
100
AcDbEntity
  8
BISUKUGI
100
AcDbLine
 10
1.436299158430529
 20
-17.02665206410074
 30
0.0
 11
2.400128945663936
 21
-16.47489361702082
 31
0.0
  0
LINE
  5
186E
330
1862
100
AcDbEntity
  8
BISUKUGI
100
AcDbLine
 10
-1.436041267098289
 20
-18.15476525945178
 30
0.0
 11
1.436299158430529
 21
-17.02665206410074
 31
0.0
  0
LINE
  5
186F
330
1862
100
AcDbEntity
  8
BISUKUGI
100
AcDbLine
 10
-2.399871054335335
 20
-17.59829787233957
 30
0.0
 11
-1.436041267098289
 21
-18.15476525945178
 31
0.0
  0
LINE
  5
1870
330
1862
100
AcDbEntity
  8
BISUKUGI
100
AcDbLine
 10
-1.436041267098289
 20
-17.04653942525965
 30
0.0
 11
-2.399871054335335
 21
-17.59829787233957
 31
0.0
  0
LINE
  5
1871
330
1862
100
AcDbEntity
  8
BISUKUGI
100
AcDbLine
 10
1.436299158430529
 20
-15.91842622990862
 30
0.0
 11
-1.436041267098289
 21
-17.04653942525965
 31
0.0
  0
LINE
  5
1872
330
1862
100
AcDbEntity
  8
BISUKUGI
100
AcDbLine
 10
2.400128945663936
 20
-16.47489361702082
 30
0.0
 11
1.436299158430529
 21
-15.91842622990862
 31
0.0
  0
LINE
  5
1873
330
1862
100
AcDbEntity
  8
BISUKUGI
100
AcDbLine
 10
1.436299158430529
 20
-19.2350219745922
 30
0.0
 11
1.436299158430529
 21
-17.02665206410074
 31
0.0
  0
LINE
  5
1874
330
1862
100
AcDbEntity
  8
BISUKUGI
100
AcDbLine
 10
-1.436041267098289
 20
-20.36313516994324
 30
0.0
 11
-1.436041267098289
 21
-18.15476525945178
 31
0.0
  0
LINE
  5
1875
330
1862
100
AcDbEntity
  8
BISUKUGI
100
AcDbLine
 10
1.436299158430529
 20
-20.34324780877705
 30
0.0
 11
0.6236161629306026
 21
-22.97835560201111
 31
0.0
  0
LINE
  5
1876
330
1862
100
AcDbEntity
  8
BISUKUGI
100
AcDbLine
 10
-1.710509352237295
 20
-0.5799999999944703
 30
0.0
 11
-1.710509352248209
 21
-4.369333728718629
 31
0.0
  0
LINE
  5
1877
330
1862
100
AcDbEntity
  8
BISUKUGI
100
AcDbLine
 10
1.710767243504506
 20
-3.753191489377059
 30
0.0
 11
-1.436041267130804
 21
-4.212210462334041
 31
0.0
  0
LINE
  5
1878
330
1862
100
AcDbEntity
  8
BISUKUGI
100
AcDbLine
 10
1.436299158398014
 20
-4.828706952874199
 30
0.0
 11
1.436299158398014
 21
-5.968638995894252
 31
0.0
  0
LINE
  5
1879
330
1862
100
AcDbEntity
  8
BISUKUGI
100
AcDbLine
 10
1.710767243500868
 20
-3.75319148939161
 30
0.0
 11
1.436299158398014
 21
-4.828706952874199
 31
0.0
  0
LINE
  5
187A
330
1862
100
AcDbEntity
  8
BISUKUGI
100
AcDbLine
 10
2.400128945631422
 20
-6.52510638300464
 30
0.0
 11
-2.399871054367849
 21
-7.64851063831611
 31
0.0
  0
LINE
  5
187B
330
1862
100
AcDbEntity
  8
BISUKUGI
100
AcDbLine
 10
1.436299158398014
 20
-7.076864830077283
 30
0.0
 11
2.400128945631422
 21
-6.52510638300464
 31
0.0
  0
LINE
  5
187C
330
1862
100
AcDbEntity
  8
BISUKUGI
100
AcDbLine
 10
-1.436041267130804
 20
-8.204978025435593
 30
0.0
 11
1.436299158398014
 21
-7.076864830077283
 31
0.0
  0
LINE
  5
187D
330
1862
100
AcDbEntity
  8
BISUKUGI
100
AcDbLine
 10
-2.399871054367849
 20
-7.64851063831611
 30
0.0
 11
-1.436041267130804
 21
-8.204978025435593
 31
0.0
  0
LINE
  5
187E
330
1862
100
AcDbEntity
  8
BISUKUGI
100
AcDbLine
 10
-1.436041267130804
 20
-7.096752191243467
 30
0.0
 11
-2.399871054367849
 21
-7.64851063831611
 31
0.0
  0
LINE
  5
187F
330
1862
100
AcDbEntity
  8
BISUKUGI
100
AcDbLine
 10
1.436299158398014
 20
-5.968638995892433
 30
0.0
 11
-1.436041267130804
 21
-7.096752191243467
 31
0.0
  0
LINE
  5
1880
330
1862
100
AcDbEntity
  8
BISUKUGI
100
AcDbLine
 10
2.400128945631422
 20
-6.52510638300464
 30
0.0
 11
1.436299158398014
 21
-5.968638995892433
 31
0.0
  0
LINE
  5
1881
330
1862
100
AcDbEntity
  8
BISUKUGI
100
AcDbLine
 10
-1.436041267130804
 20
-4.828706952874199
 30
0.0
 11
-1.972211479901034
 21
-4.51914893619687
 31
0.0
  0
LINE
  5
1882
330
1862
100
AcDbEntity
  8
BISUKUGI
100
AcDbLine
 10
-1.972211479901034
 20
-4.51914893619687
 30
0.0
 11
-1.436041267130804
 21
-4.212210462334041
 31
0.0
  0
LINE
  5
1883
330
1862
100
AcDbEntity
  8
BISUKUGI
100
AcDbLine
 10
1.710767243504506
 20
-3.75319148939161
 30
0.0
 11
1.436299158398014
 21
-3.910314755776198
 31
0.0
  0
LINE
  5
1884
330
1862
100
AcDbEntity
  8
BISUKUGI
100
AcDbLine
 10
1.436299158398014
 20
-3.910314755776198
 30
0.0
 11
-1.436041267130804
 21
-4.828706952874199
 31
0.0
  0
LINE
  5
1885
330
1862
100
AcDbEntity
  8
BISUKUGI
100
AcDbLine
 10
1.710767243500868
 20
-3.75319148939161
 30
0.0
 11
-1.972211479901034
 21
-4.51914893619687
 31
0.0
  0
LINE
  5
1886
330
1862
100
AcDbEntity
  8
BISUKUGI
100
AcDbLine
 10
-1.436041267130804
 20
-7.096752191243467
 30
0.0
 11
-1.436041267130804
 21
-4.828706952874199
 31
0.0
  0
LINE
  5
1887
330
1862
100
AcDbEntity
  8
BISUKUGI
100
AcDbLine
 10
1.710767243504506
 20
-0.5799999999944703
 30
0.0
 11
1.710767243489954
 21
-3.753191489377059
 31
0.0
  0
LINE
  5
1888
330
1862
100
AcDbEntity
  8
BISUKUGI
100
AcDbLine
 10
-1.710509352237295
 20
-0.5799999999944703
 30
0.0
 11
1.710767243504506
 21
-0.5799999999944703
 31
0.0
  0
LINE
  5
1889
330
1862
100
AcDbEntity
  8
BISUKUGI
100
AcDbLine
 10
-0.3748271632291562
 20
-23.94042553192321
 30
0.0
 11
0.9632929476676963
 21
-23.17446808511795
 31
0.0
  0
LINE
  5
188A
330
1862
100
AcDbEntity
  8
BISUKUGI
100
AcDbLine
 10
0.6236161629306026
 20
-22.97835560201111
 30
0.0
 11
-0.3748271632291562
 21
-23.94042553192321
 31
0.0
  0
LINE
  5
188B
330
1862
100
AcDbEntity
  8
BISUKUGI
100
AcDbLine
 10
0.0001289456661198
 20
-24.99999999999909
 30
0.0
 11
-1.436041267098289
 21
-21.44364442809365
 31
0.0
  0
LINE
  5
188C
330
1862
100
AcDbEntity
  8
BISUKUGI
100
AcDbLine
 10
0.4773471634682665
 20
-23.45262980551979
 30
0.0
 11
0.0001289456661198
 21
-24.99999999999909
 31
0.0
  0
LINE
  5
188D
330
1862
100
AcDbEntity
  8
BISUKUGI
100
AcDbLine
 10
1.436299158430529
 20
-9.285234740556006
 30
0.0
 11
1.436299158430529
 21
-7.07686483006455
 31
0.0
  0
LINE
  5
188E
330
1862
100
AcDbEntity
  8
BISUKUGI
100
AcDbLine
 10
2.400128945663936
 20
-13.15829787234452
 30
0.0
 11
1.436299158430529
 21
-12.60183048523231
 31
0.0
  0
LINE
  5
188F
330
1862
100
AcDbEntity
  8
BISUKUGI
100
AcDbLine
 10
1.436299158430529
 20
-12.60183048523231
 30
0.0
 11
-1.436041267098289
 21
-13.72994368058334
 31
0.0
  0
LINE
  5
1890
330
1862
100
AcDbEntity
  8
BISUKUGI
100
AcDbLine
 10
-1.436041267098289
 20
-13.72994368058334
 30
0.0
 11
-2.399871054335335
 21
-14.28170212766326
 31
0.0
  0
LINE
  5
1891
330
1862
100
AcDbEntity
  8
BISUKUGI
100
AcDbLine
 10
-2.399871054335335
 20
-14.28170212766326
 30
0.0
 11
-1.436041267098289
 21
-14.83816951477547
 31
0.0
  0
LINE
  5
1892
330
1862
100
AcDbEntity
  8
BISUKUGI
100
AcDbLine
 10
1.436299158430529
 20
-13.71005631942444
 30
0.0
 11
2.400128945663936
 21
-13.15829787234452
 31
0.0
  0
LINE
  5
1893
330
1862
100
AcDbEntity
  8
BISUKUGI
100
AcDbLine
 10
2.400128945663936
 20
-13.15829787234452
 30
0.0
 11
-2.399871054335335
 21
-14.28170212766326
 31
0.0
  0
LINE
  5
1894
330
1862
100
AcDbEntity
  8
BISUKUGI
100
AcDbLine
 10
2.400128945663936
 20
-9.841702127668213
 30
0.0
 11
1.436299158430529
 21
-9.285234740556006
 31
0.0
  0
LINE
  5
1895
330
1862
100
AcDbEntity
  8
BISUKUGI
100
AcDbLine
 10
1.436299158430529
 20
-9.285234740556006
 30
0.0
 11
-1.436041267098289
 21
-10.41334793590704
 31
0.0
  0
LINE
  5
1896
330
1862
100
AcDbEntity
  8
BISUKUGI
100
AcDbLine
 10
-1.436041267098289
 20
-10.41334793590704
 30
0.0
 11
-2.399871054335335
 21
-10.96510638298696
 31
0.0
  0
LINE
  5
1897
330
1862
100
AcDbEntity
  8
BISUKUGI
100
AcDbLine
 10
-2.399871054335335
 20
-10.96510638298696
 30
0.0
 11
-1.436041267098289
 21
-11.52157377009916
 31
0.0
  0
LINE
  5
1898
330
1862
100
AcDbEntity
  8
BISUKUGI
100
AcDbLine
 10
-1.436041267098289
 20
-11.52157377009916
 30
0.0
 11
1.436299158430529
 21
-10.39346057474813
 31
0.0
  0
LINE
  5
1899
330
1862
100
AcDbEntity
  8
BISUKUGI
100
AcDbLine
 10
1.436299158430529
 20
-10.39346057474813
 30
0.0
 11
2.400128945663936
 21
-9.841702127668213
 31
0.0
  0
LINE
  5
189A
330
1862
100
AcDbEntity
  8
BISUKUGI
100
AcDbLine
 10
2.400128945663936
 20
-9.841702127668213
 30
0.0
 11
-2.399871054335335
 21
-10.96510638298696
 31
0.0
  0
LINE
  5
189B
330
1862
100
AcDbEntity
  8
BISUKUGI
100
AcDbLine
 10
1.436299158430529
 20
-15.91842622990862
 30
0.0
 11
1.436299158430529
 21
-13.71005631942444
 31
0.0
  0
LINE
  5
189C
330
1862
100
AcDbEntity
  8
BISUKUGI
100
AcDbLine
 10
1.436299158430529
 20
-12.60183048523231
 30
0.0
 11
1.436299158430529
 21
-10.39346057474813
 31
0.0
  0
LINE
  5
189D
330
1862
100
AcDbEntity
  8
BISUKUGI
100
AcDbLine
 10
-1.436041267098289
 20
-17.04653942526693
 30
0.0
 11
-1.436041267098289
 21
-14.83816951477547
 31
0.0
  0
LINE
  5
189E
330
1862
100
AcDbEntity
  8
BISUKUGI
100
AcDbLine
 10
-1.436041267098289
 20
-13.72994368058334
 30
0.0
 11
-1.436041267098289
 21
-11.52157377009916
 31
0.0
  0
LINE
  5
189F
330
1862
100
AcDbEntity
  8
BISUKUGI
100
AcDbLine
 10
-1.436041267098289
 20
-10.41334793590704
 30
0.0
 11
-1.436041267098289
 21
-8.20497802542286
 31
0.0
  0
LINE
  5
18A0
330
1862
100
AcDbEntity
  8
BISUKUGI
100
AcDbLine
 10
-1.436041267098289
 20
-14.83816951477547
 30
0.0
 11
1.436299158430529
 21
-13.71005631942444
 31
0.0
  0
LINE
  5
18A1
330
1862
100
AcDbEntity
  8
BISUKUGI
100
AcDbLine
 10
3.750930610636828
 20
1.0
 30
0.0
 11
-3.717969113518165
 21
1.000000000000909
 31
0.0
  0
LINE
  5
18A2
330
1862
100
AcDbEntity
  8
BISUKUGI
100
AcDbLine
 10
3.750128945633605
 20
0.0
 30
0.0
 11
-3.750128945633605
 21
0.0
 31
0.0
  0
LINE
  5
18A3
330
1862
100
AcDbEntity
  8
BISUKUGI
100
AcDbLine
 10
-1.710509352237295
 20
-0.5799999999944703
 30
0.0
 11
-2.580509352236276
 21
0.0
 31
0.0
  0
LINE
  5
18A4
330
1862
100
AcDbEntity
  8
BISUKUGI
100
AcDbLine
 10
1.710767243504506
 20
-0.5799999999944703
 30
0.0
 11
2.580767243503487
 21
0.0
 31
0.0
  0
ARC
  5
18A5
330
1862
100
AcDbEntity
  8
BISUKUGI
100
AcDbCircle
 10
-3.750128945633605
 20
0.5
 30
0.0
 40
0.5
100
AcDbArc
 50
86.31939162205268
 51
270.0
  0
ARC
  5
18A6
330
1862
100
AcDbEntity
  8
BISUKUGI
100
AcDbCircle
 10
3.750128945633605
 20
0.5
 30
0.0
 40
0.5
100
AcDbArc
 50
270.0
 51
90.0
  0
ENDBLK
  5
18A7
330
1862
100
AcDbEntity
  8
0
100
AcDbBlockEnd
  0
ENDSEC
  0
SECTION
  2
ENTITIES
  0
LINE
  5
3B0
330
1F
100
AcDbEntity
  8
WAKU
100
AcDbLine
 10
29.99999999999909
 20
42.0
 30
0.0
 11
809.999999999999
 21
42.0
 31
0.0
  0
LINE
  5
3B1
330
1F
100
AcDbEntity
  8
WAKU
100
AcDbLine
 10
29.99999999999909
 20
571.9999999999989
 30
0.0
 11
29.99999999999909
 21
22.0
 31
0.0
  0
MTEXT
  5
3B2
330
1F
100
AcDbEntity
  8
WAKU
100
AcDbMText
 10
204.9999999999991
 20
32.00000000000091
 30
0.0
 40
5.0
 41
128.4454167023495
 46
0.0
 71
     5
 72
     5
  1
アイジーサイディング参考ディテール
  7
WAKU
 73
     1
 44
1.0
  0
LINE
  5
3B3
330
1F
100
AcDbEntity
  8
WAKU
100
AcDbLine
 10
127.9999999999991
 20
40.0
 30
0.0
 11
127.9999999999991
 21
24.0
 31
0.0
  0
LINE
  5
3B4
330
1F
100
AcDbEntity
  8
WAKU
100
AcDbLine
 10
31.99999999999909
 20
40.0
 30
0.0
 11
127.9999999999991
 21
40.0
 31
0.0
  0
LINE
  5
3B5
330
1F
100
AcDbEntity
  8
WAKU
100
AcDbLine
 10
129.9999999999991
 20
42.0
 30
0.0
 11
129.9999999999991
 21
22.0
 31
0.0
  0
MTEXT
  5
3B6
330
1F
100
AcDbEntity
  8
WAKU
100
AcDbMText
 10
79.99999999999909
 20
32.00000000000091
 30
0.0
 40
6.0
 41
87.09146927549227
 46
0.0
 71
     5
 72
     5
  1
アイジー工業株式会社
  7
WAKU
 73
     1
 44
1.0
  0
LINE
  5
3B7
330
1F
100
AcDbEntity
  8
WAKU
100
AcDbLine
 10
31.99999999999909
 20
40.0
 30
0.0
 11
31.99999999999909
 21
24.0
 31
0.0
  0
LINE
  5
3B8
330
1F
100
AcDbEntity
  8
WAKU
100
AcDbLine
 10
809.999999999999
 20
22.0
 30
0.0
 11
809.999999999999
 21
571.9999999999989
 31
0.0
  0
LINE
  5
3B9
330
1F
100
AcDbEntity
  8
WAKU
100
AcDbLine
 10
31.99999999999909
 20
24.0
 30
0.0
 11
127.9999999999991
 21
24.0
 31
0.0
  0
MTEXT
  5
3BA
330
1F
100
AcDbEntity
  8
WAKU
100
AcDbMText
 10
284.9999999999991
 20
32.00000000000091
 30
0.0
 40
5.0
 41
6.550809590298342
 46
0.0
 71
     5
 72
     5
  1
名称
  7
WAKU
 73
     1
 44
1.0
  0
LINE
  5
3BB
330
1F
100
AcDbEntity
  8
WAKU
100
AcDbLine
 10
289.9999999999991
 20
42.0
 30
0.0
 11
289.9999999999991
 21
22.0
 31
0.0
  0
LINE
  5
3BC
330
1F
100
AcDbEntity
  8
WAKU
100
AcDbLine
 10
279.9999999999991
 20
42.0
 30
0.0
 11
279.9999999999991
 21
22.0
 31
0.0
  0
LINE
  5
3BD
330
1F
100
AcDbEntity
  8
WAKU
100
AcDbLine
 10
499.9999999999991
 20
42.0
 30
0.0
 11
499.9999999999991
 21
22.0
 31
0.0
  0
LINE
  5
3BE
330
1F
100
AcDbEntity
  8
WAKU
100
AcDbLine
 10
489.999999999999
 20
22.0
 30
0.0
 11
489.999999999999
 21
42.0
 31
0.0
  0
MTEXT
  5
3BF
330
1F
100
AcDbEntity
  8
WAKU
100
AcDbMText
 10
509.999999999999
 20
32.00000000000091
 30
0.0
 40
5.0
 41
23.63255308467524
 46
0.0
 71
     5
 72
     5
  1
mm
  7
WAKU
 73
     1
 44
1.0
  0
MTEXT
  5
3C0
330
1F
100
AcDbEntity
  8
WAKU
100
AcDbMText
 10
549.9999999999991
 20
32.00000000000091
 30
0.0
 40
5.0
 41
39.84429663475305
 46
0.0
 71
     5
 72
     5
  1
1/2（A3）
  7
WAKU
 73
     1
 44
1.0
  0
LINE
  5
3C1
330
1F
100
AcDbEntity
  8
WAKU
100
AcDbLine
 10
529.999999999999
 20
42.0
 30
0.0
 11
529.999999999999
 21
22.0
 31
0.0
  0
LINE
  5
3C2
330
1F
100
AcDbEntity
  8
WAKU
100
AcDbLine
 10
519.9999999999991
 20
42.0
 30
0.0
 11
519.9999999999991
 21
22.0
 31
0.0
  0
LINE
  5
3C3
330
1F
100
AcDbEntity
  8
WAKU
100
AcDbLine
 10
569.9999999999991
 20
42.0
 30
0.0
 11
569.9999999999991
 21
22.0
 31
0.0
  0
LINE
  5
3C4
330
1F
100
AcDbEntity
  8
WAKU
100
AcDbLine
 10
579.999999999999
 20
42.0
 30
0.0
 11
579.999999999999
 21
22.0
 31
0.0
  0
LINE
  5
3C5
330
1F
100
AcDbEntity
  8
WAKU
  6
DASHED2
100
AcDbLine
 10
629.999999999999
 20
32.00000000000091
 30
0.0
 11
809.999999999999
 21
32.00000000000091
 31
0.0
  0
LINE
  5
3C6
330
1F
100
AcDbEntity
  8
WAKU
100
AcDbLine
 10
629.999999999999
 20
42.0
 30
0.0
 11
629.999999999999
 21
22.0
 31
0.0
  0
LINE
  5
3C7
330
1F
100
AcDbEntity
  8
WAKU
100
AcDbLine
 10
619.9999999999991
 20
42.0
 30
0.0
 11
619.9999999999991
 21
22.0
 31
0.0
  0
MTEXT
  5
3C8
330
1F
100
AcDbEntity
  8
WAKU
100
AcDbMText
 10
494.9999999999991
 20
32.00000000000091
 30
0.0
 40
5.0
 41
6.550809590298342
 46
0.0
 71
     5
 72
     5
  1
単位
  7
WAKU
 73
     1
 44
1.0
  0
MTEXT
  5
3C9
330
1F
100
AcDbEntity
  8
WAKU
100
AcDbMText
 10
524.9999999999991
 20
32.00000000000091
 30
0.0
 40
5.0
 41
6.550809590298342
 46
0.0
 71
     5
 72
     5
  1
縮尺
  7
WAKU
 73
     1
 44
1.0
  0
MTEXT
  5
3CA
330
1F
100
AcDbEntity
  8
WAKU
100
AcDbMText
 10
571.7245952048497
 20
32.00000000000091
 30
0.0
 40
5.0
 41
6.550809590298342
 46
0.0
 71
     4
 72
     5
  1
図番
  7
WAKU
 73
     1
 44
1.0
  0
MTEXT
  5
3CB
330
1F
100
AcDbEntity
  8
WAKU
100
AcDbMText
 10
624.9999999999991
 20
32.00000000000091
 30
0.0
 40
5.0
 41
6.550809590298342
 46
0.0
 71
     5
 72
     5
  1
特記
  7
WAKU
 73
     1
 44
1.0
  0
MTEXT
  5
3D2
330
1F
100
AcDbEntity
  8
WAKU
100
AcDbMText
 10
600.0989578374992
 20
31.99999999999909
 30
0.0
 40
5.0
 41
65.73479306463958
 46
0.0
 71
     5
 72
     5
  1
wy039-06-03
  7
WAKU
 73
     1
 44
1.0
  0
LINE
  5
3FC
330
1F
100
AcDbEntity
  8
WAKU
100
AcDbLine
 10
809.999999999999
 20
571.9999999999989
 30
0.0
 11
29.99999999999909
 21
571.9999999999989
 31
0.0
  0
LINE
  5
402
330
1F
100
AcDbEntity
  8
WAKU
100
AcDbLine
 10
809.999999999999
 20
22.0
 30
0.0
 11
29.99999999999909
 21
22.0
 31
0.0
  0
LWPOLYLINE
  5
454
330
1F
100
AcDbEntity
  8
AM_CL
100
AcDbPolyline
 90
        4
 70
     1
 43
0.0
 10
0.0
 20
0.0000000000002274
 10
840.0
 20
0.0000000000002274
 10
840.0
 20
594.0000000000006
 10
0.0
 20
594.0000000000006
  0
LWPOLYLINE
  5
455
330
1F
100
AcDbEntity
  8
AM_CL
100
AcDbPolyline
 90
        4
 70
     1
 43
0.0
 10
50.0
 20
552.0000000000006
 10
790.0
 20
552.0000000000006
 10
790.0
 20
62.00000000000023
 10
50.0
 20
62.00000000000023
  0
TEXT
  5
A9E
330
1F
100
AcDbEntity
  8
WAKU
100
AcDbText
 10
362.4111675126887
 20
33.99661590524443
 30
0.0
 40
5.0
  1
SP-ビレクト　新築
  7
WAKU
100
AcDbText
  0
TEXT
  5
1350
330
1F
100
AcDbEntity
  8
WAKU
100
AcDbText
 10
315.4407045598841
 20
25.38409475465233
 30
0.0
 40
5.0
  1
軒03（止縁C15・通気軒見切15-25・パッキン材Ｃ）
  7
WAKU
100
AcDbText
  0
LINE
  5
1351
330
1F
100
AcDbEntity
  8
YAKUMONO2
100
AcDbLine
 10
479.1158357142285
 20
332.0617640457901
 30
0.0
 11
439.3595747142289
 21
336.943219045789
 31
0.0
  0
LINE
  5
1352
330
1F
100
AcDbEntity
  8
YAKUMONO2
100
AcDbLine
 10
479.1584897142284
 20
332.4091550457895
 30
0.0
 11
439.4022287142288
 21
337.2906100457883
 31
0.0
  0
LINE
  5
1353
330
1F
100
AcDbEntity
  8
YAKUMONO2
100
AcDbLine
 10
479.237704714229
 20
352.0543100457896
 30
0.0
 11
471.237704714229
 21
352.0543100457896
 31
0.0
  0
LINE
  5
1354
330
1F
100
AcDbEntity
  8
YAKUMONO2
100
AcDbLine
 10
479.237704714229
 20
352.0543100457896
 30
0.0
 11
471.237704714229
 21
352.0543100457896
 31
0.0
  0
LINE
  5
1355
330
1F
100
AcDbEntity
  8
YAKUMONO2
100
AcDbLine
 10
480.237704714229
 20
351.0543100457896
 30
0.0
 11
480.237704714229
 21
333.0543100457896
 31
0.0
  0
ARC
  5
1356
330
1F
100
AcDbEntity
  8
YAKUMONO2
100
AcDbCircle
 10
479.237704714229
 20
351.0543100457896
 30
0.0
 40
1.0
100
AcDbArc
 50
0.0
 51
90.0
  0
ARC
  5
1357
330
1F
100
AcDbEntity
  8
YAKUMONO2
100
AcDbCircle
 10
471.237704714229
 20
351.0543100457896
 30
0.0
 40
1.0
100
AcDbArc
 50
90.0
 51
282.365859999984
  0
ARC
  5
1358
330
1F
100
AcDbEntity
  8
YAKUMONO2
100
AcDbCircle
 10
479.237704714229
 20
333.0543100457896
 30
0.0
 40
1.0
100
AcDbArc
 50
263.0000000000202
 51
0.0
  0
ARC
  5
1359
330
1F
100
AcDbEntity
  8
YAKUMONO2
100
AcDbCircle
 10
479.237704714229
 20
333.0543100457896
 30
0.0
 40
0.65
100
AcDbArc
 50
263.0000000000202
 51
0.0
  0
LINE
  5
135A
330
1F
100
AcDbEntity
  8
YAKUMONO2
100
AcDbLine
 10
479.8877047142286
 20
333.0543100457896
 30
0.0
 11
479.8877047142286
 21
351.0543100457896
 31
0.0
  0
ARC
  5
135B
330
1F
100
AcDbEntity
  8
YAKUMONO2
100
AcDbCircle
 10
479.237704714229
 20
351.0543100457896
 30
0.0
 40
0.65
100
AcDbArc
 50
0.0
 51
90.0
  0
LINE
  5
135C
330
1F
100
AcDbEntity
  8
YAKUMONO2
100
AcDbLine
 10
479.237704714229
 20
351.7043100457893
 30
0.0
 11
471.237704714229
 21
351.7043100457893
 31
0.0
  0
ARC
  5
135D
330
1F
100
AcDbEntity
  8
YAKUMONO2
100
AcDbCircle
 10
471.237704714229
 20
351.0543100457896
 30
0.0
 40
0.65
100
AcDbArc
 50
90.0
 51
282.365859999984
  0
LINE
  5
135E
330
1F
100
AcDbEntity
  8
YAKUMONO2
100
AcDbLine
 10
471.3769047142286
 20
350.4193900457892
 30
0.0
 11
475.2841047142291
 21
351.2760030457891
 31
0.0
  0
LINE
  5
135F
330
1F
100
AcDbEntity
  8
YAKUMONO2
100
AcDbLine
 10
471.4518587142284
 20
350.0775100457893
 30
0.0
 11
475.3590587142289
 21
350.9341230457892
 31
0.0
  0
LINE
  5
1360
330
1F
100
AcDbEntity
  8
YAKUMONO2
100
AcDbLine
 10
475.2841047142291
 20
351.2760030457891
 30
0.0
 11
475.3590587142289
 21
350.9341230457892
 31
0.0
  0
ARC
  5
1361
330
1F
100
AcDbEntity
  8
YAKUMONO2
100
AcDbCircle
 10
438.8877047142286
 20
269.3006730457899
 30
0.0
 40
1.0
100
AcDbArc
 50
180.0
 51
12.36585999998467
  0
ARC
  5
1362
330
1F
100
AcDbEntity
  8
YAKUMONO2
100
AcDbCircle
 10
438.8877047142286
 20
269.3006730457899
 30
0.0
 40
0.65
100
AcDbArc
 50
180.0
 51
12.36585999998467
  0
LINE
  5
1363
330
1F
100
AcDbEntity
  8
YAKUMONO2
100
AcDbLine
 10
439.5226247142281
 20
269.4398720457891
 30
0.0
 11
438.6660117142282
 21
273.3470730457891
 31
0.0
  0
LINE
  5
1364
330
1F
100
AcDbEntity
  8
YAKUMONO2
100
AcDbLine
 10
439.8645047142281
 20
269.5148260457888
 30
0.0
 11
439.0078917142282
 21
273.4220260457885
 31
0.0
  0
LINE
  5
1365
330
1F
100
AcDbEntity
  8
YAKUMONO2
100
AcDbLine
 10
439.0078917142282
 20
273.4220260457885
 30
0.0
 11
438.6660117142282
 21
273.3470730457891
 31
0.0
  0
LINE
  5
1366
330
1F
100
AcDbEntity
  8
YAKUMONO2
100
AcDbLine
 10
437.8877047142286
 20
269.3006730457899
 30
0.0
 11
437.8877047142286
 21
335.9506730457895
 31
0.0
  0
LINE
  5
1367
330
1F
100
AcDbEntity
  8
YAKUMONO2
100
AcDbLine
 10
438.2377047142281
 20
335.9506730457895
 30
0.0
 11
438.2377047142281
 21
269.3006730457899
 31
0.0
  0
ARC
  5
1368
330
1F
100
AcDbEntity
  8
YAKUMONO2
100
AcDbCircle
 10
439.2377047142281
 20
335.9506730457895
 30
0.0
 40
1.0
100
AcDbArc
 50
83.00000000002025
 51
180.0
  0
ARC
  5
1369
330
1F
100
AcDbEntity
  8
YAKUMONO2
100
AcDbCircle
 10
439.2377047142281
 20
335.9506730457895
 30
0.0
 40
1.35
100
AcDbArc
 50
83.00000000002025
 51
180.0
  0
TEXT
  5
136A
330
1F
100
AcDbEntity
  8
MOJI
100
AcDbText
 10
511.6656157401303
 20
266.9792995714717
 30
0.0
 40
5.0
  1
※2
  7
CAD-DL
100
AcDbText
  0
TEXT
  5
136B
330
1F
100
AcDbEntity
  8
MOJI
100
AcDbText
 10
468.6285840688351
 20
69.73208445496926
 30
0.0
 40
5.0
  1
※1 軒の出が外壁表面から300mm以上の場合は、無しも可。
  7
CAD-DL
100
AcDbText
  0
TEXT
  5
136C
330
1F
100
AcDbEntity
  8
MOJI
100
AcDbText
 10
468.6285840688351
 20
62.00000000000068
 30
0.0
 40
5.0
  1
※2 くぎまたはねじ頭には、シーリング材の代わりにタッチアップペイントでの塗装も可。
  7
CAD-DL
100
AcDbText
  0
LINE
  5
136D
330
1F
100
AcDbEntity
  8
KUTAI
100
AcDbLine
 10
314.3877047142423
 20
132.654822950634
 30
0.0
 11
314.3877047142423
 21
482.6548229506304
 31
0.0
  0
LINE
  5
136E
330
1F
100
AcDbEntity
  8
BOUSUISI
100
AcDbLine
 10
419.6377047142305
 20
482.6548229506304
 30
0.0
 11
419.6377047142241
 21
132.654822950634
 31
0.0
  0
LINE
  5
136F
330
1F
100
AcDbEntity
  8
KUTAI
100
AcDbLine
 10
419.3877047142313
 20
132.654822950634
 30
0.0
 11
419.3877047142259
 21
482.6548229506304
 31
0.0
  0
LINE
  5
1370
330
1F
100
AcDbEntity
  8
DOUBUTI
100
AcDbLine
 10
437.8877047142277
 20
132.654822950634
 30
0.0
 11
437.8877047142277
 21
352.0543102605905
 31
0.0
  0
LINE
  5
1371
330
1F
100
AcDbEntity
  8
DOUBUTI
100
AcDbLine
 10
419.8877047142278
 20
352.0543102605905
 30
0.0
 11
419.8877047142278
 21
132.654822950634
 31
0.0
  0
TEXT
  5
1372
330
1F
100
AcDbEntity
  8
MOJI
100
AcDbText
 10
472.5046898009223
 20
286.3748891192433
 30
0.0
 40
5.0
  1
シーリング材
  7
CAD-DL
100
AcDbText
  0
TEXT
  5
1373
330
1F
100
AcDbEntity
  8
MOJI
100
AcDbText
 10
479.9813402855661
 20
306.2476327513093
 30
0.0
 40
5.0
  1
止縁C15
  7
CAD-DL
100
AcDbText
  0
LINE
  5
1374
330
1F
100
AcDbEntity
  8
MOJI
100
AcDbLine
 10
460.2360802024877
 20
289.0854047423479
 30
0.0
 11
470.2360802024877
 21
289.0854047423479
 31
0.0
  0
LINE
  5
1375
330
1F
100
AcDbEntity
  8
MOJI
100
AcDbLine
 10
463.9180550848768
 20
232.9525819760627
 30
0.0
 11
473.9180550848768
 21
232.9525819760627
 31
0.0
  0
LINE
  5
1376
330
1F
100
AcDbEntity
  8
MOJI
100
AcDbLine
 10
447.992412710807
 20
260.6157767372813
 30
0.0
 11
463.9637656528439
 21
232.9525819760627
 31
0.0
  0
LINE
  5
1377
330
1F
100
AcDbEntity
  8
MOJI
100
AcDbLine
 10
451.550243868397
 20
304.2382368033002
 30
0.0
 11
460.2360802024877
 21
289.0854047423479
 31
0.0
  0
ARC
  5
1378
330
1F
100
AcDbEntity
  8
SI-RINGU
100
AcDbCircle
 10
444.3858762269601
 20
282.457900624672
 30
0.0
 40
10.0
100
AcDbArc
 50
314.1643823520375
 51
49.45309617129093
  0
LINE
  5
1379
330
1F
100
AcDbEntity
  8
SI-RINGU
100
AcDbLine
 10
451.893088203703
 20
275.8517089580426
 30
0.0
 11
451.3169627741663
 21
276.4278343875801
 31
0.0
  0
LINE
  5
137A
330
1F
100
AcDbEntity
  8
SI-RINGU
100
AcDbLine
 10
453.0221980181531
 20
277.4166759799125
 30
0.0
 11
451.2291124456014
 21
279.2097615524642
 31
0.0
  0
LINE
  5
137B
330
1F
100
AcDbEntity
  8
SI-RINGU
100
AcDbLine
 10
453.8638329891337
 20
279.2691178452539
 30
0.0
 11
451.1412621170356
 21
281.9916887173519
 31
0.0
  0
LINE
  5
137C
330
1F
100
AcDbEntity
  8
SI-RINGU
100
AcDbLine
 10
454.3387561792179
 20
281.4882714914881
 30
0.0
 11
451.1265396362477
 21
284.70048803446
 31
0.0
  0
LINE
  5
137D
330
1F
100
AcDbEntity
  8
SI-RINGU
100
AcDbLine
 10
454.2132747797441
 20
284.307829727283
 30
0.0
 11
451.1265396362477
 21
287.3945648707802
 31
0.0
  0
LINE
  5
137E
330
1F
100
AcDbEntity
  8
SI-RINGU
100
AcDbLine
 10
454.0020881200517
 20
279.714095087257
 30
0.0
 11
451.2985606720985
 21
277.0105676393057
 31
0.0
  0
LINE
  5
137F
330
1F
100
AcDbEntity
  8
SI-RINGU
100
AcDbLine
 10
454.3804739909865
 20
282.7865577945129
 30
0.0
 11
451.2160889349025
 21
279.6221727384279
 31
0.0
  0
LINE
  5
1380
330
1F
100
AcDbEntity
  8
SI-RINGU
100
AcDbLine
 10
454.0239035973026
 20
285.1240642371493
 30
0.0
 11
451.1336171977072
 21
282.2337778375538
 31
0.0
  0
LINE
  5
1381
330
1F
100
AcDbEntity
  8
SI-RINGU
100
AcDbLine
 10
453.2645868042018
 20
287.0588242803685
 30
0.0
 11
451.1265396362477
 21
284.9207771124154
 31
0.0
  0
LINE
  5
1382
330
1F
100
AcDbEntity
  8
SI-RINGU
100
AcDbLine
 10
452.2043211673435
 20
288.6926354798331
 30
0.0
 11
451.1265396362477
 21
287.6148539487356
 31
0.0
  0
LINE
  5
1383
330
1F
100
AcDbEntity
  8
MOJI
100
AcDbLine
 10
454.040072425023
 20
282.518208380731
 30
0.0
 11
462.1766895066712
 21
268.3235140024142
 31
0.0
  0
LINE
  5
1384
330
1F
100
AcDbEntity
  8
MOJI
100
AcDbLine
 10
462.1766895066712
 20
268.3235140024142
 30
0.0
 11
472.1766895066711
 21
268.3235140024142
 31
0.0
  0
TEXT
  5
1385
330
1F
100
AcDbEntity
  8
MOJI
100
AcDbText
 10
472.5317487595876
 20
265.6129983793078
 30
0.0
 40
5.0
  1
シーリング材
  7
CAD-DL
100
AcDbText
  0
LINE
  5
141C
330
1F
100
AcDbEntity
  8
BISUKUGI
100
AcDbLine
 10
434.5512204872975
 20
280.057900624676
 30
0.0
 11
435.1076878744025
 21
281.0217304119094
 31
0.0
  0
LINE
  5
141D
330
1F
100
AcDbEntity
  8
BISUKUGI
100
AcDbLine
 10
435.1076878744025
 20
281.0217304119094
 30
0.0
 11
433.9795746790587
 21
283.8940708374382
 31
0.0
  0
LINE
  5
141E
330
1F
100
AcDbEntity
  8
BISUKUGI
100
AcDbLine
 10
433.9795746790587
 20
283.8940708374382
 30
0.0
 11
433.4278162319715
 21
284.8579006246753
 31
0.0
  0
LINE
  5
141F
330
1F
100
AcDbEntity
  8
BISUKUGI
100
AcDbLine
 10
433.9994620402103
 20
281.0217304119094
 30
0.0
 11
434.5512204872975
 21
280.057900624676
 31
0.0
  0
LINE
  5
1420
330
1F
100
AcDbEntity
  8
BISUKUGI
100
AcDbLine
 10
434.5512204872975
 20
280.057900624676
 30
0.0
 11
433.4278162319715
 21
284.8579006246753
 31
0.0
  0
LINE
  5
1421
330
1F
100
AcDbEntity
  8
BISUKUGI
100
AcDbLine
 10
433.9795746790514
 20
283.8940708374382
 30
0.0
 11
436.1879445895356
 21
283.8940708374382
 31
0.0
  0
LINE
  5
1422
330
1F
100
AcDbEntity
  8
BISUKUGI
100
AcDbLine
 10
435.1076878744025
 20
281.0217304119094
 30
0.0
 11
437.3160577848939
 21
281.0217304119094
 31
0.0
  0
LINE
  5
1423
330
1F
100
AcDbEntity
  8
BISUKUGI
100
AcDbLine
 10
437.8678162319738
 20
280.057900624676
 30
0.0
 11
436.7444119766551
 21
284.8579006246753
 31
0.0
  0
LINE
  5
1424
330
1F
100
AcDbEntity
  8
BISUKUGI
100
AcDbLine
 10
436.1879445895356
 20
283.8940708374382
 30
0.0
 11
437.3160577848939
 21
281.0217304119094
 31
0.0
  0
LINE
  5
1425
330
1F
100
AcDbEntity
  8
BISUKUGI
100
AcDbLine
 10
436.7444119766551
 20
284.8579006246753
 30
0.0
 11
436.1879445895356
 21
283.8940708374382
 31
0.0
  0
LINE
  5
1426
330
1F
100
AcDbEntity
  8
BISUKUGI
100
AcDbLine
 10
437.296170423735
 20
283.8940708374382
 30
0.0
 11
436.7444119766551
 21
284.8579006246753
 31
0.0
  0
LINE
  5
1427
330
1F
100
AcDbEntity
  8
BISUKUGI
100
AcDbLine
 10
431.2346247426139
 20
280.057900624676
 30
0.0
 11
431.7910921297261
 21
281.0217304119094
 31
0.0
  0
LINE
  5
1428
330
1F
100
AcDbEntity
  8
BISUKUGI
100
AcDbLine
 10
431.7910921297261
 20
281.0217304119094
 30
0.0
 11
430.6629789343751
 21
283.8940708374382
 31
0.0
  0
LINE
  5
1429
330
1F
100
AcDbEntity
  8
BISUKUGI
100
AcDbLine
 10
430.6629789343751
 20
283.8940708374382
 30
0.0
 11
430.1112204872952
 21
284.8579006246753
 31
0.0
  0
LINE
  5
142A
330
1F
100
AcDbEntity
  8
BISUKUGI
100
AcDbLine
 10
430.1112204872952
 20
284.8579006246753
 30
0.0
 11
429.554753100183
 21
283.8940708374382
 31
0.0
  0
LINE
  5
142B
330
1F
100
AcDbEntity
  8
BISUKUGI
100
AcDbLine
 10
429.554753100183
 20
283.8940708374382
 30
0.0
 11
430.682866295534
 21
281.0217304119094
 31
0.0
  0
LINE
  5
142C
330
1F
100
AcDbEntity
  8
BISUKUGI
100
AcDbLine
 10
430.682866295534
 20
281.0217304119094
 30
0.0
 11
431.2346247426139
 21
280.057900624676
 31
0.0
  0
LINE
  5
142D
330
1F
100
AcDbEntity
  8
BISUKUGI
100
AcDbLine
 10
431.2346247426139
 20
280.057900624676
 30
0.0
 11
430.1112204872952
 21
284.8579006246753
 31
0.0
  0
LINE
  5
142E
330
1F
100
AcDbEntity
  8
BISUKUGI
100
AcDbLine
 10
433.4278162319715
 20
284.8579006246753
 30
0.0
 11
432.8713488448593
 21
283.8940708374382
 31
0.0
  0
LINE
  5
142F
330
1F
100
AcDbEntity
  8
BISUKUGI
100
AcDbLine
 10
432.8713488448593
 20
283.8940708374382
 30
0.0
 11
433.9994620402103
 21
281.0217304119094
 31
0.0
  0
LINE
  5
1430
330
1F
100
AcDbEntity
  8
BISUKUGI
100
AcDbLine
 10
428.4744963850498
 20
281.0217304119094
 30
0.0
 11
430.682866295534
 21
281.0217304119094
 31
0.0
  0
LINE
  5
1431
330
1F
100
AcDbEntity
  8
BISUKUGI
100
AcDbLine
 10
431.7910921297261
 20
281.0217304119094
 30
0.0
 11
433.9994620402103
 21
281.0217304119094
 31
0.0
  0
LINE
  5
1432
330
1F
100
AcDbEntity
  8
BISUKUGI
100
AcDbLine
 10
427.3463831896915
 20
283.8940708374382
 30
0.0
 11
429.554753100183
 21
283.8940708374382
 31
0.0
  0
LINE
  5
1433
330
1F
100
AcDbEntity
  8
BISUKUGI
100
AcDbLine
 10
430.6629789343751
 20
283.8940708374382
 30
0.0
 11
432.8713488448593
 21
283.8940708374382
 31
0.0
  0
LINE
  5
1434
330
1F
100
AcDbEntity
  8
BISUKUGI
100
AcDbLine
 10
427.9180289979376
 20
280.057900624676
 30
0.0
 11
428.4744963850498
 21
281.0217304119094
 31
0.0
  0
LINE
  5
1435
330
1F
100
AcDbEntity
  8
BISUKUGI
100
AcDbLine
 10
428.4744963850498
 20
281.0217304119094
 30
0.0
 11
427.3463831896988
 21
283.8940708374382
 31
0.0
  0
LINE
  5
1436
330
1F
100
AcDbEntity
  8
BISUKUGI
100
AcDbLine
 10
427.3463831896988
 20
283.8940708374382
 30
0.0
 11
426.7946247426189
 21
284.8579006246753
 31
0.0
  0
LINE
  5
1437
330
1F
100
AcDbEntity
  8
BISUKUGI
100
AcDbLine
 10
426.7946247426189
 20
284.8579006246753
 30
0.0
 11
426.2381573555066
 21
283.8940708374382
 31
0.0
  0
LINE
  5
1438
330
1F
100
AcDbEntity
  8
BISUKUGI
100
AcDbLine
 10
426.2381573555066
 20
283.8940708374382
 30
0.0
 11
427.3662705508577
 21
281.0217304119094
 31
0.0
  0
LINE
  5
1439
330
1F
100
AcDbEntity
  8
BISUKUGI
100
AcDbLine
 10
427.3662705508577
 20
281.0217304119094
 30
0.0
 11
427.9180289979376
 21
280.057900624676
 31
0.0
  0
LINE
  5
143A
330
1F
100
AcDbEntity
  8
BISUKUGI
100
AcDbLine
 10
427.9180289979376
 20
280.057900624676
 30
0.0
 11
426.7946247426189
 21
284.8579006246753
 31
0.0
  0
LINE
  5
143B
330
1F
100
AcDbEntity
  8
BISUKUGI
100
AcDbLine
 10
424.0297874450152
 20
283.8940708374382
 30
0.0
 11
426.2381573555066
 21
283.8940708374382
 31
0.0
  0
LINE
  5
143C
330
1F
100
AcDbEntity
  8
BISUKUGI
100
AcDbLine
 10
425.1579006403662
 20
281.0217304119094
 30
0.0
 11
427.3662705508577
 21
281.0217304119094
 31
0.0
  0
LINE
  5
143D
330
1F
100
AcDbEntity
  8
BISUKUGI
100
AcDbLine
 10
424.601433253254
 20
280.057900624676
 30
0.0
 11
425.1579006403662
 21
281.0217304119094
 31
0.0
  0
LINE
  5
143E
330
1F
100
AcDbEntity
  8
BISUKUGI
100
AcDbLine
 10
425.1579006403662
 20
281.0217304119094
 30
0.0
 11
424.0297874450152
 21
283.8940708374382
 31
0.0
  0
LINE
  5
143F
330
1F
100
AcDbEntity
  8
BISUKUGI
100
AcDbLine
 10
424.0297874450152
 20
283.8940708374382
 30
0.0
 11
423.4780289979426
 21
284.8579006246753
 31
0.0
  0
LINE
  5
1440
330
1F
100
AcDbEntity
  8
BISUKUGI
100
AcDbLine
 10
423.4780289979426
 20
284.8579006246753
 30
0.0
 11
422.9215616108231
 21
283.8940708374382
 31
0.0
  0
LINE
  5
1441
330
1F
100
AcDbEntity
  8
BISUKUGI
100
AcDbLine
 10
422.9215616108231
 20
283.8940708374382
 30
0.0
 11
424.0496748061814
 21
281.0217304119094
 31
0.0
  0
LINE
  5
1442
330
1F
100
AcDbEntity
  8
BISUKUGI
100
AcDbLine
 10
424.0496748061814
 20
281.0217304119094
 30
0.0
 11
424.601433253254
 21
280.057900624676
 31
0.0
  0
LINE
  5
1443
330
1F
100
AcDbEntity
  8
BISUKUGI
100
AcDbLine
 10
424.601433253254
 20
280.057900624676
 30
0.0
 11
423.4780289979426
 21
284.8579006246753
 31
0.0
  0
LINE
  5
1444
330
1F
100
AcDbEntity
  8
BISUKUGI
100
AcDbLine
 10
421.8413048956899
 20
281.0217304119094
 30
0.0
 11
424.0496748061814
 21
281.0217304119094
 31
0.0
  0
LINE
  5
1445
330
1F
100
AcDbEntity
  8
BISUKUGI
100
AcDbLine
 10
407.952071551128
 20
281.4947366226722
 30
0.0
 11
408.1481840342348
 21
281.8344134074093
 31
0.0
  0
LINE
  5
1446
330
1F
100
AcDbEntity
  8
BISUKUGI
100
AcDbLine
 10
411.3350502745415
 20
280.057900624676
 30
0.0
 11
411.8915176616537
 21
281.0217304119094
 31
0.0
  0
LINE
  5
1447
330
1F
100
AcDbEntity
  8
BISUKUGI
100
AcDbLine
 10
411.8915176616537
 20
281.0217304119094
 30
0.0
 11
410.7634044663027
 21
283.8940708374382
 31
0.0
  0
LINE
  5
1448
330
1F
100
AcDbEntity
  8
BISUKUGI
100
AcDbLine
 10
410.7634044663027
 20
283.8940708374382
 30
0.0
 11
410.21164601923
 21
284.8579006246753
 31
0.0
  0
LINE
  5
1449
330
1F
100
AcDbEntity
  8
BISUKUGI
100
AcDbLine
 10
410.21164601923
 20
284.8579006246753
 30
0.0
 11
409.6551786321105
 21
283.8940708374382
 31
0.0
  0
LINE
  5
144A
330
1F
100
AcDbEntity
  8
BISUKUGI
100
AcDbLine
 10
409.6551786321105
 20
283.8940708374382
 30
0.0
 11
410.7832918274689
 21
281.0217304119094
 31
0.0
  0
LINE
  5
144B
330
1F
100
AcDbEntity
  8
BISUKUGI
100
AcDbLine
 10
410.7832918274689
 20
281.0217304119094
 30
0.0
 11
411.3350502745415
 21
280.057900624676
 31
0.0
  0
LINE
  5
144C
330
1F
100
AcDbEntity
  8
BISUKUGI
100
AcDbLine
 10
411.3350502745415
 20
280.057900624676
 30
0.0
 11
410.21164601923
 21
284.8579006246753
 31
0.0
  0
LINE
  5
144D
330
1F
100
AcDbEntity
  8
BISUKUGI
100
AcDbLine
 10
414.6516460192251
 20
280.057900624676
 30
0.0
 11
413.5282417639063
 21
284.8579006246753
 31
0.0
  0
LINE
  5
144E
330
1F
100
AcDbEntity
  8
BISUKUGI
100
AcDbLine
 10
414.0998875721452
 20
281.0217304119094
 30
0.0
 11
414.6516460192251
 21
280.057900624676
 31
0.0
  0
LINE
  5
144F
330
1F
100
AcDbEntity
  8
BISUKUGI
100
AcDbLine
 10
412.9717743767941
 20
283.8940708374382
 30
0.0
 11
414.0998875721452
 21
281.0217304119094
 31
0.0
  0
LINE
  5
1450
330
1F
100
AcDbEntity
  8
BISUKUGI
100
AcDbLine
 10
413.5282417639063
 20
284.8579006246753
 30
0.0
 11
412.9717743767941
 21
283.8940708374382
 31
0.0
  0
LINE
  5
1451
330
1F
100
AcDbEntity
  8
BISUKUGI
100
AcDbLine
 10
414.0800002109862
 20
283.8940708374382
 30
0.0
 11
413.5282417639063
 21
284.8579006246753
 31
0.0
  0
LINE
  5
1452
330
1F
100
AcDbEntity
  8
BISUKUGI
100
AcDbLine
 10
415.2081134063373
 20
281.0217304119094
 30
0.0
 11
414.0800002109862
 21
283.8940708374382
 31
0.0
  0
LINE
  5
1453
330
1F
100
AcDbEntity
  8
BISUKUGI
100
AcDbLine
 10
414.6516460192251
 20
280.057900624676
 30
0.0
 11
415.2081134063373
 21
281.0217304119094
 31
0.0
  0
LINE
  5
1454
330
1F
100
AcDbEntity
  8
BISUKUGI
100
AcDbLine
 10
417.9682417639014
 20
280.057900624676
 30
0.0
 11
418.5247091510136
 21
281.0217304119094
 31
0.0
  0
LINE
  5
1455
330
1F
100
AcDbEntity
  8
BISUKUGI
100
AcDbLine
 10
418.5247091510136
 20
281.0217304119094
 30
0.0
 11
417.3965959556626
 21
283.8940708374382
 31
0.0
  0
LINE
  5
1456
330
1F
100
AcDbEntity
  8
BISUKUGI
100
AcDbLine
 10
417.3965959556626
 20
283.8940708374382
 30
0.0
 11
416.8448375085826
 21
284.8579006246753
 31
0.0
  0
LINE
  5
1457
330
1F
100
AcDbEntity
  8
BISUKUGI
100
AcDbLine
 10
416.8448375085826
 20
284.8579006246753
 30
0.0
 11
416.2883701214704
 21
283.8940708374382
 31
0.0
  0
LINE
  5
1458
330
1F
100
AcDbEntity
  8
BISUKUGI
100
AcDbLine
 10
417.4164833168215
 20
281.0217304119094
 30
0.0
 11
417.9682417639014
 21
280.057900624676
 31
0.0
  0
LINE
  5
1459
330
1F
100
AcDbEntity
  8
BISUKUGI
100
AcDbLine
 10
417.9682417639014
 20
280.057900624676
 30
0.0
 11
416.8448375085826
 21
284.8579006246753
 31
0.0
  0
LINE
  5
145A
330
1F
100
AcDbEntity
  8
BISUKUGI
100
AcDbLine
 10
421.2848375085777
 20
280.057900624676
 30
0.0
 11
421.8413048956899
 21
281.0217304119094
 31
0.0
  0
LINE
  5
145B
330
1F
100
AcDbEntity
  8
BISUKUGI
100
AcDbLine
 10
421.8413048956899
 20
281.0217304119094
 30
0.0
 11
420.7131917003389
 21
283.8940708374382
 31
0.0
  0
LINE
  5
145C
330
1F
100
AcDbEntity
  8
BISUKUGI
100
AcDbLine
 10
420.7131917003389
 20
283.8940708374382
 30
0.0
 11
420.161433253259
 21
284.8579006246753
 31
0.0
  0
LINE
  5
145D
330
1F
100
AcDbEntity
  8
BISUKUGI
100
AcDbLine
 10
420.161433253259
 20
284.8579006246753
 30
0.0
 11
419.6049658661467
 21
283.8940708374382
 31
0.0
  0
LINE
  5
145E
330
1F
100
AcDbEntity
  8
BISUKUGI
100
AcDbLine
 10
419.6049658661467
 20
283.8940708374382
 30
0.0
 11
420.7330790614978
 21
281.0217304119094
 31
0.0
  0
LINE
  5
145F
330
1F
100
AcDbEntity
  8
BISUKUGI
100
AcDbLine
 10
420.7330790614978
 20
281.0217304119094
 30
0.0
 11
421.2848375085777
 21
280.057900624676
 31
0.0
  0
LINE
  5
1460
330
1F
100
AcDbEntity
  8
BISUKUGI
100
AcDbLine
 10
421.2848375085777
 20
280.057900624676
 30
0.0
 11
420.161433253259
 21
284.8579006246753
 31
0.0
  0
LINE
  5
1461
330
1F
100
AcDbEntity
  8
BISUKUGI
100
AcDbLine
 10
411.8915176616537
 20
281.0217304119094
 30
0.0
 11
414.0998875721452
 21
281.0217304119094
 31
0.0
  0
LINE
  5
1462
330
1F
100
AcDbEntity
  8
BISUKUGI
100
AcDbLine
 10
415.2081134063373
 20
281.0217304119094
 30
0.0
 11
417.4164833168215
 21
281.0217304119094
 31
0.0
  0
LINE
  5
1463
330
1F
100
AcDbEntity
  8
BISUKUGI
100
AcDbLine
 10
410.7634044663027
 20
283.8940708374382
 30
0.0
 11
412.9717743767941
 21
283.8940708374382
 31
0.0
  0
LINE
  5
1464
330
1F
100
AcDbEntity
  8
BISUKUGI
100
AcDbLine
 10
410.7832918274689
 20
281.0217304119094
 30
0.0
 11
408.1481840342348
 21
281.8344134074093
 31
0.0
  0
LINE
  5
1465
330
1F
100
AcDbEntity
  8
BISUKUGI
100
AcDbLine
 10
418.5247091510136
 20
281.0217304119094
 30
0.0
 11
420.7330790614978
 21
281.0217304119094
 31
0.0
  0
LINE
  5
1466
330
1F
100
AcDbEntity
  8
BISUKUGI
100
AcDbLine
 10
414.080000210979
 20
283.8940708374382
 30
0.0
 11
416.2883701214704
 21
283.8940708374382
 31
0.0
  0
LINE
  5
1467
330
1F
100
AcDbEntity
  8
BISUKUGI
100
AcDbLine
 10
417.3965959556626
 20
283.8940708374382
 30
0.0
 11
419.6049658661467
 21
283.8940708374382
 31
0.0
  0
LINE
  5
1468
330
1F
100
AcDbEntity
  8
BISUKUGI
100
AcDbLine
 10
420.7131917003389
 20
283.8940708374382
 30
0.0
 11
422.9215616108231
 21
283.8940708374382
 31
0.0
  0
LINE
  5
1469
330
1F
100
AcDbEntity
  8
BISUKUGI
100
AcDbLine
 10
416.2883701214704
 20
283.8940708374382
 30
0.0
 11
417.4164833168215
 21
281.0217304119094
 31
0.0
  0
LINE
  5
146A
330
1F
100
AcDbEntity
  8
BISUKUGI
100
AcDbLine
 10
450.5465396362524
 20
284.1685389225447
 30
0.0
 11
446.7572059075282
 21
284.1685389225556
 31
0.0
  0
LINE
  5
146B
330
1F
100
AcDbEntity
  8
BISUKUGI
100
AcDbLine
 10
447.3733481468697
 20
280.7472623268029
 30
0.0
 11
446.9143291739128
 21
283.8940708374382
 31
0.0
  0
LINE
  5
146C
330
1F
100
AcDbEntity
  8
BISUKUGI
100
AcDbLine
 10
441.7408793637624
 20
281.0217304119094
 30
0.0
 11
443.9492492742537
 21
281.0217304119094
 31
0.0
  0
LINE
  5
146D
330
1F
100
AcDbEntity
  8
BISUKUGI
100
AcDbLine
 10
440.6127661684113
 20
283.8940708374382
 30
0.0
 11
442.8211360788955
 21
283.8940708374382
 31
0.0
  0
LINE
  5
146E
330
1F
100
AcDbEntity
  8
BISUKUGI
100
AcDbLine
 10
446.2978326833726
 20
281.0217304119094
 30
0.0
 11
445.0574751084387
 21
281.0217304119094
 31
0.0
  0
LINE
  5
146F
330
1F
100
AcDbEntity
  8
BISUKUGI
100
AcDbLine
 10
447.3733481468553
 20
280.7472623268065
 30
0.0
 11
446.2978326833726
 21
281.0217304119094
 31
0.0
  0
LINE
  5
1470
330
1F
100
AcDbEntity
  8
BISUKUGI
100
AcDbLine
 10
444.5010077213265
 20
280.057900624676
 30
0.0
 11
443.377603466015
 21
284.8579006246753
 31
0.0
  0
LINE
  5
1471
330
1F
100
AcDbEntity
  8
BISUKUGI
100
AcDbLine
 10
443.9492492742537
 20
281.0217304119094
 30
0.0
 11
444.5010077213265
 21
280.057900624676
 31
0.0
  0
LINE
  5
1472
330
1F
100
AcDbEntity
  8
BISUKUGI
100
AcDbLine
 10
442.8211360788955
 20
283.8940708374382
 30
0.0
 11
443.9492492742537
 21
281.0217304119094
 31
0.0
  0
LINE
  5
1473
330
1F
100
AcDbEntity
  8
BISUKUGI
100
AcDbLine
 10
443.377603466015
 20
284.8579006246753
 30
0.0
 11
442.8211360788955
 21
283.8940708374382
 31
0.0
  0
LINE
  5
1474
330
1F
100
AcDbEntity
  8
BISUKUGI
100
AcDbLine
 10
443.9293619130876
 20
283.8940708374382
 30
0.0
 11
443.377603466015
 21
284.8579006246753
 31
0.0
  0
LINE
  5
1475
330
1F
100
AcDbEntity
  8
BISUKUGI
100
AcDbLine
 10
445.0574751084387
 20
281.0217304119094
 30
0.0
 11
443.9293619130876
 21
283.8940708374382
 31
0.0
  0
LINE
  5
1476
330
1F
100
AcDbEntity
  8
BISUKUGI
100
AcDbLine
 10
444.5010077213265
 20
280.057900624676
 30
0.0
 11
445.0574751084387
 21
281.0217304119094
 31
0.0
  0
LINE
  5
1477
330
1F
100
AcDbEntity
  8
BISUKUGI
100
AcDbLine
 10
441.1844119766501
 20
280.057900624676
 30
0.0
 11
440.0610077213314
 21
284.8579006246753
 31
0.0
  0
LINE
  5
1478
330
1F
100
AcDbEntity
  8
BISUKUGI
100
AcDbLine
 10
440.6326535295702
 20
281.0217304119094
 30
0.0
 11
441.1844119766501
 21
280.057900624676
 31
0.0
  0
LINE
  5
1479
330
1F
100
AcDbEntity
  8
BISUKUGI
100
AcDbLine
 10
439.5045403342192
 20
283.8940708374382
 30
0.0
 11
440.6326535295702
 21
281.0217304119094
 31
0.0
  0
LINE
  5
147A
330
1F
100
AcDbEntity
  8
BISUKUGI
100
AcDbLine
 10
440.0610077213314
 20
284.8579006246753
 30
0.0
 11
439.5045403342192
 21
283.8940708374382
 31
0.0
  0
LINE
  5
147B
330
1F
100
AcDbEntity
  8
BISUKUGI
100
AcDbLine
 10
440.6127661684113
 20
283.8940708374382
 30
0.0
 11
440.0610077213314
 21
284.8579006246753
 31
0.0
  0
LINE
  5
147C
330
1F
100
AcDbEntity
  8
BISUKUGI
100
AcDbLine
 10
441.7408793637624
 20
281.0217304119094
 30
0.0
 11
440.6127661684113
 21
283.8940708374382
 31
0.0
  0
LINE
  5
147D
330
1F
100
AcDbEntity
  8
BISUKUGI
100
AcDbLine
 10
441.1844119766501
 20
280.057900624676
 30
0.0
 11
441.7408793637624
 21
281.0217304119094
 31
0.0
  0
LINE
  5
147E
330
1F
100
AcDbEntity
  8
BISUKUGI
100
AcDbLine
 10
446.2978326833726
 20
283.8940708374382
 30
0.0
 11
446.60739070005
 21
284.4302410502085
 31
0.0
  0
LINE
  5
147F
330
1F
100
AcDbEntity
  8
BISUKUGI
100
AcDbLine
 10
446.60739070005
 20
284.4302410502085
 30
0.0
 11
446.9143291739128
 21
283.8940708374382
 31
0.0
  0
LINE
  5
1480
330
1F
100
AcDbEntity
  8
BISUKUGI
100
AcDbLine
 10
447.3733481468553
 20
280.7472623268029
 30
0.0
 11
447.2162248804706
 21
281.0217304119094
 31
0.0
  0
LINE
  5
1481
330
1F
100
AcDbEntity
  8
BISUKUGI
100
AcDbLine
 10
447.2162248804706
 20
281.0217304119094
 30
0.0
 11
446.2978326833726
 21
283.8940708374382
 31
0.0
  0
LINE
  5
1482
330
1F
100
AcDbEntity
  8
BISUKUGI
100
AcDbLine
 10
447.3733481468553
 20
280.7472623268065
 30
0.0
 11
446.60739070005
 21
284.4302410502085
 31
0.0
  0
LINE
  5
1483
330
1F
100
AcDbEntity
  8
BISUKUGI
100
AcDbLine
 10
443.9293619130876
 20
283.8940708374382
 30
0.0
 11
446.2978326833726
 21
283.8940708374382
 31
0.0
  0
LINE
  5
1484
330
1F
100
AcDbEntity
  8
BISUKUGI
100
AcDbLine
 10
450.5465396362524
 20
280.7472623268029
 30
0.0
 11
447.3733481468697
 21
280.7472623268175
 31
0.0
  0
ARC
  5
1485
330
1F
100
AcDbEntity
  8
BISUKUGI
100
AcDbCircle
 10
448.356106943942
 20
282.4579006246738
 30
0.0000000001136514
 40
5.29043269231052
100
AcDbArc
 50
4.879429407762115
 51
36.54218197387476
  0
ARC
  5
1486
330
1F
100
AcDbEntity
  8
BISUKUGI
100
AcDbCircle
 10
433.2762010945844
 20
282.4579006246738
 30
0.0000000001136514
 40
19.58531307218241
100
AcDbArc
 50
9.255354571548739
 51
15.7462121553289
  0
ARC
  5
1487
330
1F
100
AcDbEntity
  8
BISUKUGI
100
AcDbCircle
 10
433.2762010945844
 20
282.4579006246738
 30
0.0000000001136514
 40
19.58531307218241
100
AcDbArc
 50
344.2537878446711
 51
350.7446454284512
  0
ARC
  5
1488
330
1F
100
AcDbEntity
  8
BISUKUGI
100
AcDbCircle
 10
448.356106943942
 20
282.4579006246738
 30
0.0000000001136514
 40
5.29043269231052
100
AcDbArc
 50
323.4578180261252
 51
355.1205705922379
  0
LINE
  5
1489
330
1F
100
AcDbEntity
  8
BISUKUGI
100
AcDbLine
 10
451.6865396362518
 20
277.1429006246715
 30
0.0
 11
451.6865396362518
 21
287.7729006246725
 31
0.0
  0
LINE
  5
148A
330
1F
100
AcDbEntity
  8
BISUKUGI
100
AcDbLine
 10
450.5465396362524
 20
284.1685389225447
 30
0.0
 11
450.5465396362524
 21
280.7472623268029
 31
0.0
  0
LINE
  5
148B
330
1F
100
AcDbEntity
  8
BISUKUGI
100
AcDbLine
 10
452.9665396362506
 20
282.9079006246745
 30
0.0
 11
453.6212988192528
 21
282.9079006246745
 31
0.0
  0
LINE
  5
148C
330
1F
100
AcDbEntity
  8
BISUKUGI
100
AcDbLine
 10
452.9665396362506
 20
282.0079006246731
 30
0.0
 11
452.9665396362506
 21
282.9079006246745
 31
0.0
  0
LINE
  5
148D
330
1F
100
AcDbEntity
  8
BISUKUGI
100
AcDbLine
 10
453.6212988192528
 20
282.0079006246731
 30
0.0
 11
452.9665396362506
 21
282.0079006246731
 31
0.0
  0
LINE
  5
148E
330
1F
100
AcDbEntity
  8
BISUKUGI
100
AcDbLine
 10
452.1265396362468
 20
277.1429006246715
 30
0.0
 11
452.1265396362468
 21
287.7729006246725
 31
0.0
  0
LINE
  5
148F
330
1F
100
AcDbEntity
  8
BISUKUGI
100
AcDbLine
 10
451.6865396362518
 20
287.8229006246718
 30
0.0
 11
452.1265396362468
 21
287.7729006246725
 31
0.0
  0
LINE
  5
1490
330
1F
100
AcDbEntity
  8
BISUKUGI
100
AcDbLine
 10
451.1265396362468
 20
287.2079006246738
 30
0.0
 11
451.6865396362518
 21
287.8229006246718
 31
0.0
  0
LINE
  5
1491
330
1F
100
AcDbEntity
  8
BISUKUGI
100
AcDbLine
 10
451.6865396362518
 20
277.0929006246722
 30
0.0
 11
452.1265396362468
 21
277.1429006246715
 31
0.0
  0
LINE
  5
1492
330
1F
100
AcDbEntity
  8
BISUKUGI
100
AcDbLine
 10
451.1265396362468
 20
277.7079006246738
 30
0.0
 11
451.6865396362518
 21
277.0929006246722
 31
0.0
  0
LINE
  5
1493
330
1F
100
AcDbEntity
  8
BISUKUGI
100
AcDbLine
 10
451.1265396362468
 20
277.7079006246738
 30
0.0
 11
451.1265396362468
 21
287.2079006246738
 31
0.0
  0
LINE
  5
1494
330
1F
100
AcDbEntity
  8
BISUKUGI
100
AcDbLine
 10
450.5465396362524
 20
284.1685389225447
 30
0.0
 11
451.1265396362468
 21
285.0385389225437
 31
0.0
  0
LINE
  5
1495
330
1F
100
AcDbEntity
  8
BISUKUGI
100
AcDbLine
 10
450.5465396362524
 20
280.7472623268029
 30
0.0
 11
451.1265396362468
 21
279.8772623268039
 31
0.0
  0
LINE
  5
1496
330
1F
100
AcDbEntity
  8
BISUKUGI
100
AcDbLine
 10
437.296170423735
 20
283.8940708374382
 30
0.0
 11
439.5045403342192
 21
283.8940708374382
 31
0.0
  0
LINE
  5
1497
330
1F
100
AcDbEntity
  8
BISUKUGI
100
AcDbLine
 10
438.4242836190788
 20
281.0217304119094
 30
0.0
 11
440.6326535295702
 21
281.0217304119094
 31
0.0
  0
LINE
  5
1498
330
1F
100
AcDbEntity
  8
BISUKUGI
100
AcDbLine
 10
437.3160577848939
 20
281.0217304119094
 30
0.0
 11
437.8678162319738
 21
280.057900624676
 31
0.0
  0
LINE
  5
1499
330
1F
100
AcDbEntity
  8
BISUKUGI
100
AcDbLine
 10
438.4242836190788
 20
281.0217304119094
 30
0.0
 11
437.296170423735
 21
283.8940708374382
 31
0.0
  0
LINE
  5
149A
330
1F
100
AcDbEntity
  8
BISUKUGI
100
AcDbLine
 10
437.8678162319738
 20
280.057900624676
 30
0.0
 11
438.4242836190788
 21
281.0217304119094
 31
0.0
  0
LINE
  5
149B
330
1F
100
AcDbEntity
  8
BISUKUGI
100
AcDbLine
 10
407.1861141043227
 20
282.8328567335691
 30
0.0
 11
407.952071551128
 21
281.4947366226722
 31
0.0
  0
LINE
  5
149C
330
1F
100
AcDbEntity
  8
BISUKUGI
100
AcDbLine
 10
408.1481840342348
 20
281.8344134074093
 30
0.0
 11
407.1861141043227
 21
282.8328567335691
 31
0.0
  0
LINE
  5
149D
330
1F
100
AcDbEntity
  8
BISUKUGI
100
AcDbLine
 10
406.1265396362468
 20
282.4579006246738
 30
0.0
 11
409.6828952081523
 21
283.8940708374382
 31
0.0
  0
LINE
  5
149E
330
1F
100
AcDbEntity
  8
BISUKUGI
100
AcDbLine
 10
407.6739098307261
 20
281.9806824068717
 30
0.0
 11
406.1265396362468
 21
282.4579006246738
 31
0.0
  0
LINE
  5
149F
330
1F
100
AcDbEntity
  8
YAKUMONO
100
AcDbLine
 10
438.5877047142285
 20
300.0150640922882
 30
0.0
 11
438.5877047142285
 21
289.4443500922905
 31
0.0
  0
LINE
  5
14A0
330
1F
100
AcDbEntity
  8
YAKUMONO
100
AcDbLine
 10
438.2377047142281
 20
299.821828092289
 30
0.0
 11
438.2377047142281
 21
289.6375850922893
 31
0.0
  0
LINE
  5
14A1
330
1F
100
AcDbEntity
  8
YAKUMONO
100
AcDbLine
 10
457.163306488942
 20
304.4905010922891
 30
0.0
 11
460.5016787142276
 21
309.1181070922892
 31
0.0
  0
LINE
  5
14A2
330
1F
100
AcDbEntity
  8
YAKUMONO
100
AcDbLine
 10
457.431422488943
 20
304.2655250922897
 30
0.0
 11
460.7697937142265
 21
308.8931310922896
 31
0.0
  0
ARC
  5
14A3
330
1F
100
AcDbEntity
  8
YAKUMONO
100
AcDbCircle
 10
456.2823554889409
 20
305.2297070922894
 30
0.0
 40
1.149999999999999
100
AcDbArc
 50
165.0000000000055
 51
320.0000000001592
  0
LINE
  5
14A4
330
1F
100
AcDbEntity
  8
YAKUMONO
100
AcDbLine
 10
455.1715414889413
 20
305.5273490922889
 30
0.0
 11
457.3450834889418
 21
313.6391200922887
 31
0.0
  0
LINE
  5
14A5
330
1F
100
AcDbEntity
  8
YAKUMONO
100
AcDbLine
 10
454.833467488942
 20
305.6179350922891
 30
0.0
 11
457.0070094889424
 21
313.7297070922894
 31
0.0
  0
LINE
  5
14A6
330
1F
100
AcDbEntity
  8
YAKUMONO
100
AcDbLine
 10
457.3450834889418
 20
313.6391200922887
 30
0.0
 11
457.0070094889424
 21
313.7297070922894
 31
0.0
  0
ARC
  5
14A7
330
1F
100
AcDbEntity
  8
YAKUMONO
100
AcDbCircle
 10
456.2823554889409
 20
305.2297070922894
 30
0.0
 40
1.5
100
AcDbArc
 50
165.0000000000055
 51
320.0000000001592
  0
ARC
  5
14A8
330
1F
100
AcDbEntity
  8
YAKUMONO
100
AcDbCircle
 10
459.2377047142263
 20
310.1787060922895
 30
0.0
 40
1.649999999999999
100
AcDbArc
 50
320.0000000001592
 51
0.0000009999948896
  0
ARC
  5
14A9
330
1F
100
AcDbEntity
  8
YAKUMONO
100
AcDbCircle
 10
459.2377047142263
 20
310.1787060922895
 30
0.0
 40
2.0
100
AcDbArc
 50
320.0000000001592
 51
0.0
  0
ARC
  5
14AA
330
1F
100
AcDbEntity
  8
YAKUMONO
100
AcDbCircle
 10
451.5077047142267
 20
332.7297070922893
 30
0.0
 40
1.0
100
AcDbArc
 50
41.81031500006276
 51
90.0
  0
LINE
  5
14AB
330
1F
100
AcDbEntity
  8
YAKUMONO
100
AcDbLine
 10
460.8877047142278
 20
310.1787060922895
 30
0.0
 11
460.8877047142278
 21
331.7297070922894
 31
0.0
  0
LINE
  5
14AC
330
1F
100
AcDbEntity
  8
YAKUMONO
100
AcDbLine
 10
461.2377047142281
 20
310.1787060922895
 30
0.0
 11
461.2377047142281
 21
331.7297070922894
 31
0.0
  0
ARC
  5
14AD
330
1F
100
AcDbEntity
  8
YAKUMONO
100
AcDbCircle
 10
459.2377047142263
 20
331.7297070922894
 30
0.0
 40
1.649999999999999
100
AcDbArc
 50
0.0000009999948896
 51
90.0
  0
ARC
  5
14AE
330
1F
100
AcDbEntity
  8
YAKUMONO
100
AcDbCircle
 10
459.2377047142263
 20
331.7297070922894
 30
0.0
 40
2.0
100
AcDbArc
 50
0.0
 51
90.0
  0
ARC
  5
14AF
330
1F
100
AcDbEntity
  8
YAKUMONO
100
AcDbCircle
 10
456.9777047142279
 20
332.7297070922893
 30
0.0
 40
1.0
100
AcDbArc
 50
90.0
 51
138.1896849999372
  0
ARC
  5
14B0
330
1F
100
AcDbEntity
  8
YAKUMONO
100
AcDbCircle
 10
454.7416367142259
 20
334.7297070922893
 30
0.0
 40
2.35
100
AcDbArc
 50
270.0
 51
324.9376099999963
  0
ARC
  5
14B1
330
1F
100
AcDbEntity
  8
YAKUMONO
100
AcDbCircle
 10
454.7416367142259
 20
334.7297070922893
 30
0.0
 40
2.0
100
AcDbArc
 50
270.0
 51
318.1896849999372
  0
ARC
  5
14B2
330
1F
100
AcDbEntity
  8
YAKUMONO
100
AcDbCircle
 10
453.7437727142268
 20
334.7297070922893
 30
0.0
 40
2.35
100
AcDbArc
 50
215.0623900000037
 51
270.0
  0
ARC
  5
14B3
330
1F
100
AcDbEntity
  8
YAKUMONO
100
AcDbCircle
 10
453.7437727142268
 20
334.7297070922893
 30
0.0
 40
2.0
100
AcDbArc
 50
221.8103150000628
 51
270.0
  0
LINE
  5
14B4
330
1F
100
AcDbEntity
  8
YAKUMONO
100
AcDbLine
 10
454.7416367142277
 20
332.379707092289
 30
0.0
 11
453.7437727142287
 21
332.379707092289
 31
0.0
  0
LINE
  5
14B5
330
1F
100
AcDbEntity
  8
YAKUMONO
100
AcDbLine
 10
454.7416367142277
 20
332.7297070922893
 30
0.0
 11
453.7437727142287
 21
332.7297070922893
 31
0.0
  0
LINE
  5
14B6
330
1F
100
AcDbEntity
  8
YAKUMONO
100
AcDbLine
 10
459.2377047142281
 20
333.379707092289
 30
0.0
 11
456.665175714229
 21
333.379707092289
 31
0.0
  0
LINE
  5
14B7
330
1F
100
AcDbEntity
  8
YAKUMONO
100
AcDbLine
 10
459.2377047142281
 20
333.7297070922894
 30
0.0
 11
456.9777047142279
 21
333.7297070922894
 31
0.0
  0
LINE
  5
14B8
330
1F
100
AcDbEntity
  8
YAKUMONO
100
AcDbLine
 10
451.8202347142278
 20
333.379707092289
 30
0.0
 11
439.7377047142281
 21
333.379707092289
 31
0.0
  0
LINE
  5
14B9
330
1F
100
AcDbEntity
  8
YAKUMONO
100
AcDbLine
 10
451.5077047142267
 20
333.7297070922894
 30
0.0
 11
439.7377047142281
 21
333.7297070922894
 31
0.0
  0
LINE
  5
14BA
330
1F
100
AcDbEntity
  8
YAKUMONO
100
AcDbLine
 10
438.2377047142281
 20
332.2297070922894
 30
0.0
 11
438.2377047142281
 21
303.6375850922893
 31
0.0
  0
ARC
  5
14BB
330
1F
100
AcDbEntity
  8
YAKUMONO
100
AcDbCircle
 10
439.7377047142263
 20
332.2297070922894
 30
0.0
 40
1.5
100
AcDbArc
 50
90.0
 51
180.0
  0
ARC
  5
14BC
330
1F
100
AcDbEntity
  8
YAKUMONO
100
AcDbCircle
 10
439.7377047142263
 20
332.2297070922894
 30
0.0
 40
1.149999999999999
100
AcDbArc
 50
90.0
 51
180.0000019999898
  0
LINE
  5
14BD
330
1F
100
AcDbEntity
  8
YAKUMONO
100
AcDbLine
 10
438.5877047142285
 20
332.2297070922894
 30
0.0
 11
438.5877047142285
 21
303.4443500922905
 31
0.0
  0
ARC
  5
14BE
330
1F
100
AcDbEntity
  8
YAKUMONO
100
AcDbCircle
 10
438.2377047142263
 20
301.7297070922893
 30
0.0
 40
1.75
100
AcDbArc
 50
281.5369589999898
 51
78.4630410000102
  0
ARC
  5
14BF
330
1F
100
AcDbEntity
  8
YAKUMONO
100
AcDbCircle
 10
438.2377047142263
 20
301.7297070922893
 30
0.0
 40
1.399999999999999
100
AcDbArc
 50
287.4576030000039
 51
72.54239699999614
  0
ARC
  5
14C0
330
1F
100
AcDbEntity
  8
YAKUMONO
100
AcDbCircle
 10
438.8377047142267
 20
303.6375850922893
 30
0.0
 40
0.6
100
AcDbArc
 50
180.0
 51
252.5423969999961
  0
ARC
  5
14C1
330
1F
100
AcDbEntity
  8
YAKUMONO
100
AcDbCircle
 10
438.8377047142267
 20
299.821828092289
 30
0.0
 40
0.6
100
AcDbArc
 50
107.4576030000038
 51
180.0
  0
ARC
  5
14C2
330
1F
100
AcDbEntity
  8
YAKUMONO
100
AcDbCircle
 10
438.2377047142263
 20
287.7297070922893
 30
0.0
 40
1.75
100
AcDbArc
 50
281.5369589999898
 51
78.4630410000102
  0
ARC
  5
14C3
330
1F
100
AcDbEntity
  8
YAKUMONO
100
AcDbCircle
 10
438.2377047142263
 20
287.7297070922893
 30
0.0
 40
1.399999999999999
100
AcDbArc
 50
287.4576030000039
 51
72.54239699999614
  0
ARC
  5
14C4
330
1F
100
AcDbEntity
  8
YAKUMONO
100
AcDbCircle
 10
438.8377047142267
 20
285.821828092289
 30
0.0
 40
0.6
100
AcDbArc
 50
107.4576030000038
 51
180.0
  0
ARC
  5
14C5
330
1F
100
AcDbEntity
  8
YAKUMONO
100
AcDbCircle
 10
438.8377047142267
 20
289.6375850922893
 30
0.0
 40
0.6
100
AcDbArc
 50
180.0
 51
252.5423969999961
  0
LINE
  5
14C6
330
1F
100
AcDbEntity
  8
YAKUMONO
100
AcDbLine
 10
438.5877047142285
 20
286.0150640922882
 30
0.0
 11
438.5877047142285
 21
275.2297070922893
 31
0.0
  0
LINE
  5
14C7
330
1F
100
AcDbEntity
  8
YAKUMONO
100
AcDbLine
 10
438.2377047142281
 20
285.821828092289
 30
0.0
 11
438.2377047142281
 21
275.2297070922893
 31
0.0
  0
LINE
  5
14C8
330
1F
100
AcDbEntity
  8
YAKUMONO
100
AcDbLine
 10
440.8877047142278
 20
275.2297070922893
 30
0.0
 11
440.8877047142278
 21
279.7297070922894
 31
0.0
  0
LINE
  5
14C9
330
1F
100
AcDbEntity
  8
YAKUMONO
100
AcDbLine
 10
441.2377047142281
 20
275.2297070922893
 30
0.0
 11
441.2377047142281
 21
279.7297070922894
 31
0.0
  0
ARC
  5
14CA
330
1F
100
AcDbEntity
  8
YAKUMONO
100
AcDbCircle
 10
439.7377047142263
 20
275.2297070922893
 30
0.0
 40
1.149999999999999
100
AcDbArc
 50
180.0000019999898
 51
0.0000019999897792
  0
ARC
  5
14CB
330
1F
100
AcDbEntity
  8
YAKUMONO
100
AcDbCircle
 10
439.7377047142263
 20
275.2297070922893
 30
0.0
 40
1.5
100
AcDbArc
 50
180.0
 51
0.0
  0
LINE
  5
14CC
330
1F
100
AcDbEntity
  8
YAKUMONO
100
AcDbLine
 10
441.2377047142281
 20
279.7297070922894
 30
0.0
 11
440.8877047142278
 21
279.7297070922894
 31
0.0
  0
LINE
  5
14CD
330
1F
100
AcDbEntity
  8
MOJI
100
AcDbLine
 10
485.1087316574084
 20
334.8685954188775
 30
0.0
 11
495.1087316574094
 21
334.8685954188775
 31
0.0
  0
TEXT
  5
14CE
330
1F
100
AcDbEntity
  8
MOJI
100
AcDbText
 10
519.1292228776274
 20
319.4573841388471
 30
0.0
 40
5.0
  1
※1
  7
CAD-DL
100
AcDbText
  0
LINE
  5
14CF
330
1F
100
AcDbEntity
  8
KUTAI
100
AcDbLine
 10
419.8877047142295
 20
352.0543100457878
 30
0.0
 11
506.2490885339403
 21
352.0543100457878
 31
0.0
  0
LINE
  5
14D0
330
1F
100
AcDbEntity
  8
KUTAI
100
AcDbLine
 10
449.8877047142277
 20
358.0543100457878
 30
0.0
 11
506.2490885339403
 21
358.0543100457878
 31
0.0
  0
LINE
  5
14D1
330
1F
100
AcDbEntity
  8
KUTAI
100
AcDbLine
 10
449.8877047142277
 20
388.0543100457878
 30
0.0
 11
419.8877047142278
 21
358.0543100457878
 31
0.0
  0
LINE
  5
14D2
330
1F
100
AcDbEntity
  8
KUTAI
100
AcDbLine
 10
449.8877047142277
 20
388.0543100457878
 30
0.0
 11
506.2490885339403
 21
388.0543100457878
 31
0.0
  0
LINE
  5
14D3
330
1F
100
AcDbEntity
  8
KUTAI
100
AcDbLine
 10
419.8877047142278
 20
388.0543100457878
 30
0.0
 11
449.8877047142277
 21
388.0543100457878
 31
0.0
  0
LINE
  5
14D4
330
1F
100
AcDbEntity
  8
KUTAI
100
AcDbLine
 10
449.8877047142277
 20
388.0543100457878
 30
0.0
 11
449.8877047142277
 21
358.0543100457878
 31
0.0
  0
LINE
  5
14D5
330
1F
100
AcDbEntity
  8
KUTAI
100
AcDbLine
 10
449.8877047142277
 20
358.0543100457878
 30
0.0
 11
419.8877047142278
 21
358.0543100457878
 31
0.0
  0
LINE
  5
14D6
330
1F
100
AcDbEntity
  8
KUTAI
100
AcDbLine
 10
419.8877047142278
 20
358.0543100457878
 30
0.0
 11
419.8877047142278
 21
388.0543100457878
 31
0.0
  0
LINE
  5
14D7
330
1F
100
AcDbEntity
  8
DOUBUTI
100
AcDbLine
 10
437.8877047142277
 20
352.0543102605905
 30
0.0
 11
419.8877047142278
 21
352.0543102605905
 31
0.0
  0
LINE
  5
14D8
330
1F
100
AcDbEntity
  8
MOJI
100
AcDbLine
 10
480.2377047142281
 20
343.3054615695062
 30
0.0
 11
485.1087316574084
 21
334.8685954188775
 31
0.0
  0
LINE
  5
14D9
330
1F
100
AcDbEntity
  8
MOJI
100
AcDbLine
 10
460.8877047142259
 20
320.9542065922931
 30
0.0
 11
467.9107353725594
 21
308.789960668945
 31
0.0
  0
TEXT
  5
14DA
330
1F
100
AcDbEntity
  8
MOJI
100
AcDbText
 10
496.1647132551925
 20
332.2978900707064
 30
0.0
 40
5.0
  1
通気軒見切15-25
  7
CAD-DL
100
AcDbText
  0
TEXT
  5
14DB
330
1F
100
AcDbEntity
  8
MOJI
100
AcDbText
 10
354.1018835464893
 20
360.1255552266052
 30
0.0
 40
5.0
  1
透湿防水シート
  7
CAD-DL
100
AcDbText
  0
LINE
  5
14DC
330
1F
100
AcDbEntity
  8
MOJI
100
AcDbLine
 10
490.1635055870165
 20
355.11744587108
 30
0.0
 11
505.2401440484081
 21
381.2309496935602
 31
0.0
  0
LINE
  5
14DD
330
1F
100
AcDbEntity
  8
MOJI
100
AcDbLine
 10
505.2401440484081
 20
381.2309496935602
 30
0.0
 11
515.2401440484082
 21
381.2309496935602
 31
0.0
  0
TEXT
  5
14DE
330
1F
100
AcDbEntity
  8
MOJI
100
AcDbText
 10
517.6812223670913
 20
378.789845035061
 30
0.0
 40
5.0
  1
軒天
  7
CAD-DL
100
AcDbText
  0
LINE
  5
14DF
330
1F
100
AcDbEntity
  8
MOJI
100
AcDbLine
 10
467.9107353725603
 20
308.789960668945
 30
0.0
 11
477.9107353725603
 21
308.789960668945
 31
0.0
  0
LINE
  5
14E0
330
1F
100
AcDbEntity
  8
MOJI
100
AcDbLine
 10
405.3105503971228
 20
341.4261966525507
 30
0.0
 11
395.3105503971228
 21
341.4261966525507
 31
0.0
  0
LINE
  5
14E1
330
1F
100
AcDbEntity
  8
MOJI
100
AcDbLine
 10
405.3105503971228
 20
341.4261966525507
 30
0.0
 11
423.2327908185189
 21
310.3839656572298
 31
0.0
  0
LINE
  5
14E2
330
1F
100
AcDbEntity
  8
MOJI
100
AcDbLine
 10
409.333153530567
 20
361.8963231741097
 30
0.0
 11
399.3331535305669
 21
361.8963231741097
 31
0.0
  0
LINE
  5
14E3
330
1F
100
AcDbEntity
  8
MOJI
100
AcDbLine
 10
409.333153530567
 20
361.8963231741097
 30
0.0
 11
419.6377047142277
 21
344.0483169748193
 31
0.0
  0
LINE
  5
14E4
330
1F
100
AcDbEntity
  8
MOJI
100
AcDbLine
 10
462.698868809829
 20
330.5805443714951
 30
0.0
 11
468.6474744876168
 21
320.2772571033736
 31
0.0
  0
LINE
  5
14E5
330
1F
100
AcDbEntity
  8
MOJI
100
AcDbLine
 10
468.6474744876168
 20
320.2772571033736
 30
0.0
 11
478.6474744876167
 21
320.2772571033736
 31
0.0
  0
TEXT
  5
14E6
330
1F
100
AcDbEntity
  8
MOJI
100
AcDbText
 10
479.8781291723671
 20
317.9407316566219
 30
0.0
 40
5.0
  1
シーリング材
  7
CAD-DL
100
AcDbText
  0
TEXT
  5
14E7
330
1F
100
AcDbEntity
  8
MOJI
100
AcDbText
 10
381.9860333448314
 20
339.1162601060721
 30
0.0
 40
5.0
  1
胴縁
  7
CAD-DL
100
AcDbText
  0
LINE
  5
14E8
330
1F
100
AcDbEntity
  8
SI-RINGU
100
AcDbLine
 10
467.2997761993001
 20
333.3898091850231
 30
0.0
 11
461.2377047142281
 21
324.7297070634911
 31
0.0
  0
LINE
  5
14E9
330
1F
100
AcDbEntity
  8
SI-RINGU
100
AcDbLine
 10
458.1077047142307
 20
333.7297070634911
 30
0.0
 11
458.1077047142307
 21
334.5184536461081
 31
0.0
  0
LINE
  5
14EA
330
1F
100
AcDbEntity
  8
SI-RINGU
100
AcDbLine
 10
458.6833004959144
 20
333.7297070922894
 30
0.0
 11
459.3228464101621
 21
334.3692530065389
 31
0.0
  0
LINE
  5
14EB
330
1F
100
AcDbEntity
  8
SI-RINGU
100
AcDbLine
 10
460.7200292143115
 20
333.0723589743673
 30
0.0
 11
461.7223065827838
 21
334.0746363428396
 31
0.0
  0
LINE
  5
14EC
330
1F
100
AcDbEntity
  8
SI-RINGU
100
AcDbLine
 10
461.2377047142262
 20
330.8959576379591
 30
0.0
 11
464.1217667554037
 21
333.7800196791384
 31
0.0
  0
LINE
  5
14ED
330
1F
100
AcDbEntity
  8
SI-RINGU
100
AcDbLine
 10
461.2377047142272
 20
328.2018808016389
 30
0.0
 11
466.5212269280245
 21
333.4854030154372
 31
0.0
  0
LINE
  5
14EE
330
1F
100
AcDbEntity
  8
SI-RINGU
100
AcDbLine
 10
461.2377047142262
 20
325.5078039653188
 30
0.0
 11
463.0532641518266
 21
327.3233634029191
 31
0.0
  0
LINE
  5
14EF
330
1F
100
AcDbEntity
  8
SI-RINGU
100
AcDbLine
 10
462.2162522117314
 20
326.127632059927
 30
0.0
 11
461.2377047142254
 21
327.1061795574321
 31
0.0
  0
LINE
  5
14F0
330
1F
100
AcDbEntity
  8
SI-RINGU
100
AcDbLine
 10
463.3255779678639
 20
327.7123831401157
 30
0.0
 11
461.2377047142262
 21
329.8002563937541
 31
0.0
  0
LINE
  5
14F1
330
1F
100
AcDbEntity
  8
SI-RINGU
100
AcDbLine
 10
464.4349037239963
 20
329.2971342203043
 30
0.0
 11
460.9186991845663
 21
332.8133387597343
 31
0.0
  0
LINE
  5
14F2
330
1F
100
AcDbEntity
  8
SI-RINGU
100
AcDbLine
 10
460.3213363816712
 20
333.4107015626293
 30
0.0
 11
459.3683751660637
 21
334.3636627782369
 31
0.0
  0
LINE
  5
14F3
330
1F
100
AcDbEntity
  8
SI-RINGU
100
AcDbLine
 10
465.5442294801278
 20
330.881885300493
 30
0.0
 11
462.4395441357928
 21
333.9865706448279
 31
0.0
  0
LINE
  5
14F4
330
1F
100
AcDbEntity
  8
SI-RINGU
100
AcDbLine
 10
466.6535552362611
 20
332.4666363806798
 30
0.0
 11
465.5107131055201
 21
333.6094785114208
 31
0.0
  0
LINE
  5
14F5
330
1F
100
AcDbEntity
  8
KUTAI
100
AcDbLine
 10
419.8877047142278
 20
358.0543100457878
 30
0.0
 11
419.8877047142278
 21
352.0543100457878
 31
0.0
  0
LINE
  5
1541
330
1F
100
AcDbEntity
  8
SEIHIN
100
AcDbLine
 10
449.8283844542029
 20
323.5661494255262
 30
0.0
 11
438.7912655060818
 21
323.5661494255262
 31
0.0
  0
LINE
  5
1542
330
1F
100
AcDbEntity
  8
SEIHIN
100
AcDbLine
 10
438.7561371319252
 20
203.3404891306879
 30
0.0
 11
438.7561371319252
 21
132.654822950634
 31
0.0
  0
LINE
  5
1543
330
1F
100
AcDbEntity
  8
SEIHIN
100
AcDbLine
 10
449.8571628061553
 20
132.654822950634
 30
0.0
 11
447.7005434383591
 21
200.9477652291741
 31
0.0
  0
LINE
  5
1544
330
1F
100
AcDbEntity
  8
SEIHIN
100
AcDbLine
 10
449.4569634098443
 20
132.654822950634
 30
0.0
 11
447.3007427353204
 21
200.9351399430259
 31
0.0
  0
LINE
  5
1545
330
1F
100
AcDbEntity
  8
SEIHIN
100
AcDbLine
 10
439.1912655060814
 20
234.8249116258128
 30
0.0
 11
439.1912655060814
 21
227.0749116258128
 31
0.0
  0
LINE
  5
1546
330
1F
100
AcDbEntity
  8
SEIHIN
100
AcDbLine
 10
441.2722745060818
 20
234.6078506258152
 30
0.0
 11
440.2737975060817
 21
228.9452066258152
 31
0.0
  0
LINE
  5
1547
330
1F
100
AcDbEntity
  8
SEIHIN
100
AcDbLine
 10
440.8783515060822
 20
234.677310625814
 30
0.0
 11
439.8798745060822
 21
229.0146656258118
 31
0.0
  0
ARC
  5
1548
330
1F
100
AcDbEntity
  8
SEIHIN
100
AcDbCircle
 10
440.0412655060818
 20
234.8249116258128
 30
0.0
 40
0.8500000000000227
100
AcDbArc
 50
349.9999999999403
 51
180.0
  0
ARC
  5
1549
330
1F
100
AcDbEntity
  8
SEIHIN
100
AcDbCircle
 10
440.0412655060818
 20
234.8249116258128
 30
0.0
 40
1.250000000000057
100
AcDbArc
 50
349.9999999999403
 51
180.0
  0
POINT
  5
154A
330
1F
100
AcDbEntity
  8
SEIHIN
100
AcDbPoint
 10
447.7912655060817
 20
198.0749116258128
 30
0.0
 50
270.0
  0
ARC
  5
154B
330
1F
100
AcDbEntity
  8
SEIHIN
100
AcDbCircle
 10
440.1912655060823
 20
223.0749116258128
 30
0.0
 40
1.0
100
AcDbArc
 50
143.1301019999108
 51
216.8698980000892
  0
ARC
  5
154C
330
1F
100
AcDbEntity
  8
SEIHIN
100
AcDbCircle
 10
439.1912655060814
 20
221.0749116258055
 30
0.0
 40
1.0
100
AcDbArc
 50
323.1301019999108
 51
36.86989800008922
  0
ARC
  5
154D
330
1F
100
AcDbEntity
  8
SEIHIN
100
AcDbCircle
 10
439.1912655060814
 20
225.0749116258128
 30
0.0
 40
1.0
100
AcDbArc
 50
323.1301019999108
 51
36.86989800008922
  0
LINE
  5
154E
330
1F
100
AcDbEntity
  8
SEIHIN
100
AcDbLine
 10
439.3912655060821
 20
223.6749116258168
 30
0.0
 11
439.9912655060815
 21
224.474911625816
 31
0.0
  0
LINE
  5
154F
330
1F
100
AcDbEntity
  8
SEIHIN
100
AcDbLine
 10
439.3912655060821
 20
222.474911625816
 30
0.0
 11
439.9912655060815
 21
221.6749116258149
 31
0.0
  0
LINE
  5
1550
330
1F
100
AcDbEntity
  8
SEIHIN
100
AcDbLine
 10
439.3912655060821
 20
219.674911625815
 30
0.0
 11
439.9912655060815
 21
220.474911625816
 31
0.0
  0
LINE
  5
1551
330
1F
100
AcDbEntity
  8
SEIHIN
100
AcDbLine
 10
439.3912655060821
 20
226.474911625816
 30
0.0
 11
439.9912655060815
 21
225.6749116258168
 31
0.0
  0
ARC
  5
1552
330
1F
100
AcDbEntity
  8
SEIHIN
100
AcDbCircle
 10
440.1912655060823
 20
219.0749116258128
 30
0.0
 40
1.0
100
AcDbArc
 50
143.1301019999108
 51
180.0
  0
LINE
  5
1553
330
1F
100
AcDbEntity
  8
SEIHIN
100
AcDbLine
 10
439.1912655060814
 20
219.0749116258128
 30
0.0
 11
439.1912655060814
 21
203.1249116258048
 31
0.0
  0
ARC
  5
1554
330
1F
100
AcDbEntity
  8
SEIHIN
100
AcDbCircle
 10
440.1912655060823
 20
227.0749116258128
 30
0.0
 40
1.0
100
AcDbArc
 50
180.0
 51
216.8698980000892
  0
ARC
  5
1555
330
1F
100
AcDbEntity
  8
SEIHIN
100
AcDbCircle
 10
440.1912655060823
 20
219.0749116258128
 30
0.0
 40
1.399999999999999
100
AcDbArc
 50
143.1301019999108
 51
180.0
  0
LINE
  5
1556
330
1F
100
AcDbEntity
  8
SEIHIN
100
AcDbLine
 10
439.0712655060815
 20
219.9149116258129
 30
0.0
 11
439.6712655060818
 21
220.714911625814
 31
0.0
  0
ARC
  5
1557
330
1F
100
AcDbEntity
  8
SEIHIN
100
AcDbCircle
 10
439.1912655060814
 20
221.0749116258055
 30
0.0
 40
0.6
100
AcDbArc
 50
323.1301019999108
 51
36.86989800008922
  0
LINE
  5
1558
330
1F
100
AcDbEntity
  8
SEIHIN
100
AcDbLine
 10
439.6712655060818
 20
221.4349116258152
 30
0.0
 11
439.0712655060815
 21
222.2349116258126
 31
0.0
  0
ARC
  5
1559
330
1F
100
AcDbEntity
  8
SEIHIN
100
AcDbCircle
 10
440.1912655060823
 20
223.0749116258128
 30
0.0
 40
1.399999999999999
100
AcDbArc
 50
143.1301019999108
 51
216.8698980000892
  0
LINE
  5
155A
330
1F
100
AcDbEntity
  8
SEIHIN
100
AcDbLine
 10
439.0712655060815
 20
223.9149116258129
 30
0.0
 11
439.6712655060818
 21
224.714911625814
 31
0.0
  0
ARC
  5
155B
330
1F
100
AcDbEntity
  8
SEIHIN
100
AcDbCircle
 10
439.1912655060814
 20
225.0749116258128
 30
0.0
 40
0.6
100
AcDbArc
 50
323.1301019999108
 51
36.86989800008922
  0
ARC
  5
155C
330
1F
100
AcDbEntity
  8
SEIHIN
100
AcDbCircle
 10
440.1912655060823
 20
227.0749116258128
 30
0.0
 40
1.399999999999999
100
AcDbArc
 50
180.0
 51
216.8698980000892
  0
LINE
  5
155D
330
1F
100
AcDbEntity
  8
SEIHIN
100
AcDbLine
 10
439.6712655060818
 20
225.4349116258152
 30
0.0
 11
439.0712655060815
 21
226.2349116258126
 31
0.0
  0
LINE
  5
155E
330
1F
100
AcDbEntity
  8
SEIHIN
100
AcDbLine
 10
438.7912655060818
 20
234.8249116258128
 30
0.0
 11
438.7912655060826
 21
132.654822950634
 31
0.0
  0
LINE
  5
155F
330
1F
100
AcDbEntity
  8
SEIHIN
100
AcDbLine
 10
443.2912655060817
 20
211.0749116258128
 30
0.0
 11
443.2912655060817
 21
203.1249116258048
 31
0.0
  0
LINE
  5
1560
330
1F
100
AcDbEntity
  8
SEIHIN
100
AcDbLine
 10
443.6912655060814
 20
211.0749116258128
 30
0.0
 11
443.6912655060814
 21
203.1249116258048
 31
0.0
  0
ARC
  5
1561
330
1F
100
AcDbEntity
  8
SEIHIN
100
AcDbCircle
 10
441.2412655060807
 20
203.1249116258048
 30
0.0
 40
2.050000000000038
100
AcDbArc
 50
180.0
 51
0.0
  0
ARC
  5
1562
330
1F
100
AcDbEntity
  8
SEIHIN
100
AcDbCircle
 10
441.2412655060807
 20
203.1249116258048
 30
0.0
 40
2.450000000000017
100
AcDbArc
 50
180.0
 51
0.0
  0
ARC
  5
1563
330
1F
100
AcDbEntity
  8
SEIHIN
100
AcDbCircle
 10
446.2012908019696
 20
200.90042040605
 30
0.0
 40
1.5
100
AcDbArc
 50
1.808739438080984
 51
11.45538045669815
  0
ARC
  5
1564
330
1F
100
AcDbEntity
  8
SEIHIN
100
AcDbCircle
 10
446.2012908019678
 20
200.9004204060627
 30
0.0
 40
1.1
100
AcDbArc
 50
1.808739438080984
 51
11.45538045669815
  0
ARC
  5
1565
330
1F
100
AcDbEntity
  8
SEIHIN
100
AcDbCircle
 10
445.2912655060818
 20
211.0749116258128
 30
0.0
 40
2.0
100
AcDbArc
 50
0.0
 51
180.0
  0
LINE
  5
1566
330
1F
100
AcDbEntity
  8
SEIHIN
100
AcDbLine
 10
447.2912655060818
 20
211.0749116258128
 30
0.0
 11
447.2912655060809
 21
203.184607072714
 31
0.0
  0
ARC
  5
1567
330
1F
100
AcDbEntity
  8
SEIHIN
100
AcDbCircle
 10
445.2912655060818
 20
211.0749116258128
 30
0.0
 40
1.600000000000361
100
AcDbArc
 50
0.0
 51
180.0
  0
LINE
  5
1568
330
1F
100
AcDbEntity
  8
SEIHIN
100
AcDbLine
 10
446.8912655060822
 20
211.0749116258128
 30
0.0
 11
446.8912655060803
 21
203.184607072714
 31
0.0
  0
LINE
  5
1569
330
1F
100
AcDbEntity
  8
SEIHIN
100
AcDbLine
 39
15.0
 10
447.3131778725765
 20
202.9661418478379
 30
0.0
 11
447.6714103022049
 21
201.1983275308856
 31
0.0
  0
ARC
  5
156A
330
1F
100
AcDbEntity
  8
SEIHIN
100
AcDbCircle
 39
15.0
 10
448.3912655060803
 20
203.184607072714
 30
0.0
 40
1.1
100
AcDbArc
 50
180.0
 51
191.4553804566981
  0
LINE
  5
156B
330
1F
100
AcDbEntity
  8
SEIHIN
100
AcDbLine
 39
15.0
 10
446.9211460058477
 20
202.8866999478748
 30
0.0
 11
447.2793784354726
 21
201.1188856309479
 31
0.0
  0
ARC
  5
156C
330
1F
100
AcDbEntity
  8
SEIHIN
100
AcDbCircle
 39
15.0
 10
448.3912655060803
 20
203.184607072714
 30
0.0
 40
1.5
100
AcDbArc
 50
180.0
 51
191.4553804566981
  0
LINE
  5
156D
330
1F
100
AcDbEntity
  8
SEIHIN
100
AcDbLine
 10
451.840024506083
 20
198.5977446258118
 30
0.0
 11
448.9030365060816
 21
199.3847086258145
 31
0.0
  0
LINE
  5
156E
330
1F
100
AcDbEntity
  8
SEIHIN
100
AcDbLine
 10
453.7275055060827
 20
200.0939786258139
 30
0.0
 11
449.8283844542029
 21
323.5661494255262
 31
0.0
  0
LINE
  5
156F
330
1F
100
AcDbEntity
  8
SEIHIN
100
AcDbLine
 10
453.3277045060822
 20
200.081352625816
 30
0.0
 11
449.4281847591546
 21
323.5661494255262
 31
0.0
  0
LINE
  5
1570
330
1F
100
AcDbEntity
  8
SEIHIN
100
AcDbLine
 10
447.7912655060817
 20
212.5749116258128
 30
0.0
 11
447.7912655060817
 21
200.8335966258135
 31
0.0
  0
LINE
  5
1571
330
1F
100
AcDbEntity
  8
SEIHIN
100
AcDbLine
 10
442.7912655060818
 20
212.5749116258128
 30
0.0
 11
442.7912655060818
 21
204.0749116258128
 31
0.0
  0
LINE
  5
1572
330
1F
100
AcDbEntity
  8
SEIHIN
100
AcDbLine
 10
448.1912655060814
 20
212.5749116258128
 30
0.0
 11
448.1912655060814
 21
200.8335966258135
 31
0.0
  0
LINE
  5
1573
330
1F
100
AcDbEntity
  8
SEIHIN
100
AcDbLine
 10
441.8483465060817
 20
210.1574056258148
 30
0.0
 11
440.8064575060816
 21
204.2485596258127
 31
0.0
  0
LINE
  5
1574
330
1F
100
AcDbEntity
  8
SEIHIN
100
AcDbLine
 10
451.9435515060822
 20
198.9841156258142
 30
0.0
 11
449.006564506083
 21
199.7710786258146
 31
0.0
  0
LINE
  5
1575
330
1F
100
AcDbEntity
  8
SEIHIN
100
AcDbLine
 10
442.2422695060823
 20
210.0879466258127
 30
0.0
 11
441.8483465060817
 21
210.1574056258148
 31
0.0
  0
LINE
  5
1576
330
1F
100
AcDbEntity
  8
SEIHIN
100
AcDbLine
 10
442.2422695060823
 20
210.0879466258127
 30
0.0
 11
441.2003805060821
 21
204.1791006258161
 31
0.0
  0
ARC
  5
1577
330
1F
100
AcDbEntity
  8
SEIHIN
100
AcDbCircle
 10
441.7912655060818
 20
204.0749116258128
 30
0.0
 40
1.0
100
AcDbArc
 50
169.9999999999402
 51
0.0
  0
ARC
  5
1578
330
1F
100
AcDbEntity
  8
SEIHIN
100
AcDbCircle
 10
441.7912655060818
 20
204.0749116258128
 30
0.0
 40
0.6
100
AcDbArc
 50
169.9999999999402
 51
0.0
  0
ARC
  5
1579
330
1F
100
AcDbEntity
  8
SEIHIN
100
AcDbCircle
 10
452.2282525060818
 20
200.0466336258148
 30
0.0
 40
1.5
100
AcDbArc
 50
255.0000000000056
 51
1.808738999928308
  0
ARC
  5
157A
330
1F
100
AcDbEntity
  8
SEIHIN
100
AcDbCircle
 10
449.2912655060818
 20
200.8335966258135
 30
0.0
 40
1.5
100
AcDbArc
 50
180.0
 51
255.0000000000056
  0
ARC
  5
157B
330
1F
100
AcDbEntity
  8
SEIHIN
100
AcDbCircle
 10
445.2912655060818
 20
212.5749116258128
 30
0.0
 40
2.499999999999949
100
AcDbArc
 50
0.0
 51
180.0
  0
ARC
  5
157C
330
1F
100
AcDbEntity
  8
SEIHIN
100
AcDbCircle
 10
449.2912655060818
 20
200.8335966258135
 30
0.0
 40
1.1
100
AcDbArc
 50
180.0
 51
255.0000000000056
  0
ARC
  5
157D
330
1F
100
AcDbEntity
  8
SEIHIN
100
AcDbCircle
 10
452.2282525060818
 20
200.0466336258148
 30
0.0
 40
1.1
100
AcDbArc
 50
255.0000000000056
 51
1.808738999928308
  0
ARC
  5
157E
330
1F
100
AcDbEntity
  8
SEIHIN
100
AcDbCircle
 10
445.2912655060818
 20
212.5749116258128
 30
0.0
 40
2.900000000000028
100
AcDbArc
 50
0.0
 51
180.0
  0
LINE
  5
157F
330
1F
100
AcDbEntity
  8
SEIHIN
100
AcDbLine
 10
438.7912655060818
 20
323.5661494255262
 30
0.0
 11
438.7912655060818
 21
248.9033386258149
 31
0.0
  0
LINE
  5
1580
330
1F
100
AcDbEntity
  8
SEIHIN
100
AcDbLine
 10
442.3912655060822
 20
204.0749116258128
 30
0.0
 11
442.3912655060822
 21
243.6464846258139
 31
0.0
  0
ARC
  5
1581
330
1F
100
AcDbEntity
  8
SEIHIN
100
AcDbCircle
 10
440.7912655060818
 20
248.9033386258149
 30
0.0
 40
2.0
100
AcDbArc
 50
180.0
 51
224.9999999998457
  0
LINE
  5
1582
330
1F
100
AcDbEntity
  8
SEIHIN
100
AcDbLine
 10
439.3770515060805
 20
247.4891246258128
 30
0.0
 11
441.8054785060822
 21
245.0606976258139
 31
0.0
  0
POINT
  5
1583
330
1F
100
AcDbEntity
  8
BOUSUISI
100
AcDbPoint
 10
438.7912655060818
 20
248.0749116258128
 30
0.0
 50
270.0
  0
ARC
  5
1584
330
1F
100
AcDbEntity
  8
SEIHIN
100
AcDbCircle
 39
15.0
 10
446.7445332514753
 20
216.2156715519693
 30
0.0
 40
3.788242501833976
100
AcDbArc
 50
210.9511139949509
 51
286.0401435491656
  0
ARC
  5
1585
330
1F
100
AcDbEntity
  8
SEIHIN
100
AcDbCircle
 10
440.3912655060821
 20
243.6464846258139
 30
0.0
 40
2.0
100
AcDbArc
 50
0.0
 51
44.9999999998457
  0
LINE
  5
1586
330
1F
100
AcDbEntity
  8
SEIHIN
100
AcDbLine
 10
440.2737975060817
 20
228.9452066258152
 30
0.0
 11
439.8798745060822
 21
229.0146656258118
 31
0.0
  0
LINE
  5
1587
330
1F
100
AcDbEntity
  8
SI-RINGU
100
AcDbLine
 10
450.3168721593521
 20
308.0973715750235
 30
0.0
 11
450.6824845109894
 21
308.4629839266586
 31
0.0
1001
GradientColor1ACI
1070
     5
1001
GradientColor2ACI
1070
     2
1001
ACAD
1010
0.0
1020
0.0
1030
0.0
  0
LINE
  5
1588
330
1F
100
AcDbEntity
  8
SI-RINGU
100
AcDbLine
 10
450.399343896548
 20
305.485766475898
 30
0.0
 11
453.4644116758737
 21
308.5508342552248
 31
0.0
1001
GradientColor1ACI
1070
     5
1001
GradientColor2ACI
1070
     2
1001
ACAD
1010
0.0
1020
0.0
1030
0.0
  0
LINE
  5
1589
330
1F
100
AcDbEntity
  8
SI-RINGU
100
AcDbLine
 10
451.0971179912639
 20
303.4894637342938
 30
0.0
 11
455.4219914544119
 21
307.8143371974427
 31
0.0
1001
GradientColor1ACI
1070
     5
1001
GradientColor2ACI
1070
     2
1001
ACAD
1010
0.0
1020
0.0
1030
0.0
  0
LINE
  5
158A
330
1F
100
AcDbEntity
  8
SI-RINGU
100
AcDbLine
 10
454.0615516081024
 20
303.7598205148122
 30
0.0
 11
454.9149135708312
 21
304.6131824775409
 31
0.0
1001
GradientColor1ACI
1070
     5
1001
GradientColor2ACI
1070
     2
1001
ACAD
1010
0.0
1020
0.0
1030
0.0
  0
LINE
  5
158B
330
1F
100
AcDbEntity
  8
SI-RINGU
100
AcDbLine
 10
452.5089406347369
 20
303.6182221663864
 30
0.0
 11
450.3914508828438
 21
305.7357119182786
 31
0.0
1001
GradientColor1ACI
1070
     5
1001
GradientColor2ACI
1070
     2
1001
ACAD
1010
0.0
1020
0.0
1030
0.0
  0
LINE
  5
158C
330
1F
100
AcDbEntity
  8
SI-RINGU
100
AcDbLine
 10
454.9778523597315
 20
303.8433872777121
 30
0.0
 11
450.3701542805622
 21
308.4510853568805
 31
0.0
1001
GradientColor1ACI
1070
     5
1001
GradientColor2ACI
1070
     2
1001
ACAD
1010
0.0
1020
0.0
1030
0.0
  0
LINE
  5
158D
330
1F
100
AcDbEntity
  8
SI-RINGU
100
AcDbLine
 10
455.058298887362
 20
306.4570175864016
 30
0.0
 11
452.9797861810193
 21
308.5355302927445
 31
0.0
1001
GradientColor1ACI
1070
     5
1001
GradientColor2ACI
1070
     2
1001
ACAD
1010
0.0
1020
0.0
1030
0.0
  0
LINE
  5
158E
330
1F
100
AcDbEntity
  8
SI-RINGU
100
AcDbLine
 10
449.9919097457953
 20
318.3878483506301
 30
0.0000000009637499
 11
459.9869264273388
 21
318.7035088272252
 31
0.0000000009637499
1001
GradientColor1ACI
1070
     5
1001
GradientColor2ACI
1070
     2
1001
ACAD
1010
0.0
1020
0.0
1030
0.0
  0
LINE
  5
158F
330
1F
100
AcDbEntity
  8
SI-RINGU
100
AcDbLine
 10
450.052037665301
 20
316.4837975022209
 30
0.0000000009637499
 11
460.0470543468437
 21
316.7994579788159
 31
0.0000000009637499
1001
GradientColor1ACI
1070
     5
1001
GradientColor2ACI
1070
     2
1001
ACAD
1010
0.0
1020
0.0
1030
0.0
  0
LINE
  5
1590
330
1F
100
AcDbEntity
  8
SI-RINGU
100
AcDbLine
 10
450.1121655848058
 20
314.5797466538136
 30
0.0000000009637499
 11
460.1071822663485
 21
314.8954071304086
 31
0.0000000009637499
1001
GradientColor1ACI
1070
     5
1001
GradientColor2ACI
1070
     2
1001
ACAD
1010
0.0
1020
0.0
1030
0.0
  0
LINE
  5
1591
330
1F
100
AcDbEntity
  8
SI-RINGU
100
AcDbLine
 10
450.1722935043107
 20
312.6756958054044
 30
0.0000000009637499
 11
456.7805088883365
 21
312.8843950486399
 31
0.0000000009637499
1001
GradientColor1ACI
1070
     5
1001
GradientColor2ACI
1070
     2
1001
ACAD
1010
0.0
1020
0.0
1030
0.0
  0
LINE
  5
1592
330
1F
100
AcDbEntity
  8
SI-RINGU
100
AcDbLine
 10
450.2324214238165
 20
310.7716449569953
 30
0.0000000009637499
 11
456.2654527926875
 21
310.9621788618288
 31
0.0000000009637499
1001
GradientColor1ACI
1070
     5
1001
GradientColor2ACI
1070
     2
1001
ACAD
1010
0.0
1020
0.0
1030
0.0
  0
LINE
  5
1593
330
1F
100
AcDbEntity
  8
SI-RINGU
100
AcDbLine
 10
450.2925493433213
 20
308.8675941085879
 30
0.0000000009637499
 11
455.7503966970391
 21
309.0399626750194
 31
0.0000000009637499
1001
GradientColor1ACI
1070
     5
1001
GradientColor2ACI
1070
     2
1001
ACAD
1010
0.0
1020
0.0
1030
0.0
  0
LINE
  5
1594
330
1F
100
AcDbEntity
  8
SI-RINGU
100
AcDbLine
 10
460.1440633087731
 20
313.7275074143231
 30
0.0
 11
459.9535244862372
 21
319.761236997696
 31
0.0
  0
LINE
  5
1595
330
1F
100
AcDbEntity
  8
SI-RINGU
100
AcDbLine
 10
459.9535244862372
 20
319.761236997696
 30
0.0
 11
449.9585069093296
 21
319.4456048743124
 31
0.0
  0
LINE
  5
1596
330
1F
100
AcDbEntity
  8
SI-RINGU
100
AcDbLine
 10
449.9585069093296
 20
319.4456048743124
 30
0.0
 11
450.3057022450538
 21
308.4510855397137
 31
0.0
  0
LINE
  5
1597
330
1F
100
AcDbEntity
  8
SI-RINGU
100
AcDbLine
 10
450.3057022450538
 20
308.4510855397137
 30
0.0
 11
455.6377247755066
 21
308.6194651929035
 31
0.0
  0
LINE
  5
1598
330
1F
100
AcDbEntity
  8
SI-RINGU
100
AcDbLine
 10
450.4642078178029
 20
303.4317422336719
 30
0.0
 11
455.5897325690903
 21
303.8991908425221
 31
0.0
  0
LINE
  5
159A
330
1F
100
AcDbEntity
  8
MOJI
100
AcDbLine
 10
454.2080670740961
 20
316.7718498096249
 30
0.0
 11
464.3168283388231
 21
299.1366612224872
 31
0.0
  0
TEXT
  5
159B
330
1F
100
AcDbEntity
  8
MOJI
100
AcDbText
 10
473.9846154123442
 20
296.4261455993826
 30
0.0
 40
5.0
  1
パッキン材Ｃ
  7
CAD-DL
100
AcDbText
  0
LINE
  5
159C
330
1F
100
AcDbEntity
  8
MOJI
100
AcDbLine
 10
464.3168283388231
 20
299.1366612224872
 30
0.0
 11
474.3168283388231
 21
299.1366612224872
 31
0.0
  0
TEXT
  5
159D
330
1F
100
AcDbEntity
  8
MOJI
100
AcDbText
 10
475.0373666502009
 20
230.4805610763076
 30
0.0
 40
5.0
  1
SP-ビレクト
  7
CAD-DL
100
AcDbText
  0
LINE
  5
163C
330
1F
100
AcDbEntity
  8
SI-RINGU
100
AcDbLine
 10
457.3450830805056
 20
313.639118567984
 30
0.0
 11
460.1440633087731
 21
313.7275074143231
 31
0.0
  0
INSERT
  5
18AE
330
1F
100
AcDbEntity
  8
0
100
AcDbBlockReference
  2
平頭L25
 10
438.2377047142281
 20
305.5558957039522
 30
0.0
 50
270.0
  0
INSERT
  5
18AF
330
1F
100
AcDbEntity
  8
0
100
AcDbBlockReference
  2
平頭L25
 10
438.5877047142285
 20
294.7461878408523
 30
0.0
 50
270.0
  0
INSERT
  5
18B1
330
1F
100
AcDbEntity
  8
0
100
AcDbBlockReference
  2
平頭L25
 10
439.1912655060814
 20
223.0909501305907
 30
0.0
 50
270.0
  0
ENDSEC
  0
SECTION
  2
OBJECTS
  0
DICTIONARY
  5
C
330
0
100
AcDbDictionary
281
     1
  3
ACAD_CIP_PREVIOUS_PRODUCT_INFO
350
1A5
  3
ACAD_COLOR
350
73
  3
ACAD_DETAILVIEWSTYLE
350
1AB
  3
ACAD_GROUP
350
D
  3
ACAD_LAYOUT
350
1A
  3
ACAD_MATERIAL
350
72
  3
ACAD_MLEADERSTYLE
350
D7
  3
ACAD_MLINESTYLE
350
17
  3
ACAD_PLOTSETTINGS
350
19
  3
ACAD_PLOTSTYLENAME
350
E
  3
ACAD_SCALELIST
350
B6
  3
ACAD_SECTIONVIEWSTYLE
350
1A8
  3
ACAD_TABLESTYLE
350
86
  3
ACAD_VISUALSTYLE
350
99
  3
ACDB_RECOMPOSE_DATA
350
19CD
  3
AcDbVariableDictionary
350
66
  3
AcDsDecomposeData
350
19D3
  0
DICTIONARY
  5
4F8
330
8
100
AcDbDictionary
280
     1
281
     1
  0
DICTIONARY
  5
18E
330
2
100
AcDbDictionary
280
     1
281
     1
  3
ACAD_LAYERSTATES
360
18F
  0
DICTIONARY
  5
E6
330
10
100
AcDbDictionary
280
     1
281
     1
  0
DICTIONARY
  5
2E3
330
2E2
100
AcDbDictionary
280
     1
281
     1
  0
DICTIONARY
  5
2E5
330
2E4
100
AcDbDictionary
280
     1
281
     1
  0
DICTIONARY
  5
2E7
330
2E6
100
AcDbDictionary
280
     1
281
     1
  0
DICTIONARY
  5
2E9
330
2E8
100
AcDbDictionary
280
     1
281
     1
  0
DICTIONARY
  5
2EB
330
2EA
100
AcDbDictionary
280
     1
281
     1
  0
DICTIONARY
  5
2ED
330
2EC
100
AcDbDictionary
280
     1
281
     1
  0
DICTIONARY
  5
2EF
330
2EE
100
AcDbDictionary
280
     1
281
     1
  0
DICTIONARY
  5
2F1
330
2F0
100
AcDbDictionary
280
     1
281
     1
  0
DICTIONARY
  5
2F3
330
2F2
100
AcDbDictionary
280
     1
281
     1
  0
DICTIONARY
  5
2F5
330
2F4
100
AcDbDictionary
280
     1
281
     1
  0
DICTIONARY
  5
683
330
682
100
AcDbDictionary
280
     1
281
     1
  0
DICTIONARY
  5
15D
330
1F
100
AcDbDictionary
280
     1
281
     1
  3
ACAD_SORTENTS
360
18B0
  0
DICTIONARY
  5
185F
330
185D
100
AcDbDictionary
280
     1
281
     1
  0
XRECORD
  5
1A5
102
{ACAD_REACTORS
330
C
102
}
330
C
100
AcDbXrecord
280
     1
300
ACDLT
300
2017
300
86604ACDLT_2017_0F
  0
DICTIONARY
  5
73
102
{ACAD_REACTORS
330
C
102
}
330
C
100
AcDbDictionary
281
     1
  0
DICTIONARY
  5
1AB
102
{ACAD_REACTORS
330
C
102
}
330
C
100
AcDbDictionary
281
     1
  3
Imperial24
350
1AC
  3
Metric50
350
2FF
  0
DICTIONARY
  5
D
102
{ACAD_REACTORS
330
C
102
}
330
C
100
AcDbDictionary
281
     1
  0
DICTIONARY
  5
1A
102
{ACAD_REACTORS
330
C
102
}
330
C
100
AcDbDictionary
281
     1
  3
Model
350
22
  3
レイアウト1
350
59
  3
レイアウト2
350
5E
  0
DICTIONARY
  5
72
102
{ACAD_REACTORS
330
C
102
}
330
C
100
AcDbDictionary
281
     1
  3
ByBlock
350
97
  3
ByLayer
350
96
  3
Global
350
98
  0
DICTIONARY
  5
D7
102
{ACAD_REACTORS
330
C
102
}
330
C
100
AcDbDictionary
281
     1
  3
Standard
350
D8
  0
DICTIONARY
  5
17
102
{ACAD_REACTORS
330
C
102
}
330
C
100
AcDbDictionary
281
     1
  3
Standard
350
18
  0
DICTIONARY
  5
19
102
{ACAD_REACTORS
330
C
102
}
330
C
100
AcDbDictionary
281
     1
  0
ACDBDICTIONARYWDFLT
  5
E
102
{ACAD_REACTORS
330
C
102
}
330
C
100
AcDbDictionary
281
     1
  3
Normal
350
F
  3
スタイル 1
350
2FD
100
AcDbDictionaryWithDefault
340
F
  0
DICTIONARY
  5
B6
102
{ACAD_REACTORS
330
C
102
}
330
C
100
AcDbDictionary
281
     1
  3
A0
350
B7
  3
A1
350
124
  3
A2
350
125
  3
A3
350
126
  3
A4
350
127
  3
A5
350
128
  3
A6
350
129
  3
A7
350
12A
  3
A8
350
12B
  3
A9
350
12C
  3
B0
350
12D
  3
B1
350
12E
  3
B2
350
12F
  3
B3
350
130
  3
B4
350
131
  3
B5
350
132
  3
B6
350
133
  3
B7
350
134
  3
B8
350
135
  3
B9
350
136
  3
C0
350
137
  3
C1
350
138
  3
C2
350
139
  3
C3
350
13A
  3
C4
350
13B
  3
C5
350
13C
  3
C6
350
13D
  3
C7
350
13E
  3
C8
350
13F
  3
C9
350
140
  3
D0
350
141
  3
D1
350
142
  3
D2
350
143
  0
DICTIONARY
  5
1A8
102
{ACAD_REACTORS
330
C
102
}
330
C
100
AcDbDictionary
281
     1
  3
Imperial24
350
1AA
  3
Metric50
350
2FE
  0
DICTIONARY
  5
86
102
{ACAD_REACTORS
330
C
102
}
330
C
100
AcDbDictionary
281
     1
  3
Standard
350
87
  0
DICTIONARY
  5
99
102
{ACAD_REACTORS
330
C
102
}
330
C
100
AcDbDictionary
281
     1
  3
2dWireframe
350
9F
  3
Basic
350
9E
  3
Brighten
350
A5
  3
ColorChange
350
A9
  3
Conceptual
350
A2
  3
Dim
350
A4
  3
EdgeColorOff
350
175
  3
Facepattern
350
A8
  3
Flat
350
9A
  3
FlatWithEdges
350
9B
  3
Gouraud
350
9C
  3
GouraudWithEdges
350
9D
  3
Hidden
350
A1
  3
JitterOff
350
173
  3
Linepattern
350
A7
  3
OverhangOff
350
174
  3
Realistic
350
A3
  3
Shaded
350
182
  3
Shaded with edges
350
181
  3
Shades of Gray
350
17E
  3
Sketchy
350
17F
  3
Thicken
350
A6
  3
Wireframe
350
A0
  3
X-Ray
350
180
  0
XRECORD
  5
19CD
102
{ACAD_REACTORS
330
C
102
}
330
C
100
AcDbXrecord
280
     1
 90
        1
330
87
  0
DICTIONARY
  5
66
102
{ACAD_REACTORS
330
C
102
}
330
C
100
AcDbDictionary
281
     1
  3
CANNOSCALE
350
F0
  3
CMLEADERSTYLE
350
EF
  3
CTABLESTYLE
350
89
  3
CVIEWDETAILSTYLE
350
1B7
  3
CVIEWSECTIONSTYLE
350
1B8
  3
DIMASSOC
350
67
  3
HIDETEXT
350
6B
  3
LAYEREVAL
350
14D
  3
LAYERNOTIFY
350
14E
  3
LIGHTINGUNITS
350
537
  3
MSLTSCALE
350
536
  0
DICTIONARY
  5
19D3
102
{ACAD_REACTORS
330
C
102
}
330
C
100
AcDbDictionary
281
     1
  3
AcDsRecords
350
19D5
  3
AcDsSchemas
350
19D4
1001
ACAD
1070
     2
  0
DICTIONARY
  5
18F
102
{ACAD_REACTORS
330
18E
102
}
330
18E
100
AcDbDictionary
281
     1
  0
SORTENTSTABLE
  5
18B0
102
{ACAD_REACTORS
330
15D
102
}
330
15D
100
AcDbSortentsTable
330
1F
331
1497
  5
148D
331
1493
  5
1489
331
14D4
  5
14C8
331
1356
  5
1358
331
14D0
  5
14C4
331
148F
  5
1485
331
1352
  5
1354
331
148B
  5
1481
331
14CC
  5
14C2
331
A9E
  5
1351
331
1557
  5
14F0
331
14C8
  5
14BE
331
1553
  5
14EC
331
1594
  5
1578
331
1590
  5
1574
331
154F
  5
14E8
331
154B
  5
14E4
331
158C
  5
1570
331
1588
  5
156C
331
141F
  5
137F
331
145C
  5
1452
331
1458
  5
144E
331
1454
  5
144A
331
1383
  5
1588
331
1450
  5
1446
331
1487
  5
147D
331
1483
  5
1479
331
14C4
  5
14BA
331
147F
  5
1475
331
14C0
  5
14B6
331
3C9
  5
3CB
331
147B
  5
1471
331
14BC
  5
14B2
331
3C5
  5
3C7
331
1547
  5
14E0
331
14B8
  5
14AE
331
3C1
  5
3C3
331
1543
  5
14DC
331
1584
  5
1568
331
1580
  5
1564
331
14F3
  5
14D7
331
157C
  5
1560
331
1578
  5
155C
331
137F
  5
1378
331
137B
  5
1374
331
144C
  5
1442
331
1377
  5
1587
331
1448
  5
143E
331
1444
  5
143A
331
1373
  5
1583
331
1440
  5
1436
331
14B7
  5
14AD
331
14B3
  5
14A9
331
14AF
  5
14A5
331
14AB
  5
14A1
331
14EC
  5
14D0
331
1577
  5
155B
331
136E
  5
136D
331
14E8
  5
14CC
331
1573
  5
1557
331
136A
  5
157F
331
156F
  5
1553
331
156B
  5
154F
331
3BC
  5
3BE
331
3B8
  5
3BA
331
143F
  5
1435
331
143B
  5
1431
331
1437
  5
142D
331
1474
  5
146A
331
1433
  5
1429
331
1470
  5
1466
331
14A7
  5
149D
331
14A3
  5
1499
331
14E4
  5
159A
331
455
  5
1350
331
1366
  5
1368
331
149F
  5
1495
331
14E0
  5
1595
331
1362
  5
1364
331
149B
  5
1491
331
14DC
  5
1591
331
135E
  5
1360
331
1567
  5
154B
331
14D8
  5
158D
331
135A
  5
135C
331
1563
  5
1547
331
163C
  5
157D
331
155F
  5
1543
331
155B
  5
14F4
331
159C
  5
18AF
331
3B4
  5
3B6
331
1598
  5
157C
331
3B0
  5
3B2
331
142F
  5
1425
331
142B
  5
1421
331
146C
  5
1462
331
1427
  5
141D
331
1468
  5
145E
331
1423
  5
1383
331
1464
  5
145A
331
1460
  5
1456
331
1496
  5
148C
331
14D7
  5
14CB
331
1492
  5
1488
331
1355
  5
1357
331
3FC
  5
454
331
14D3
  5
14C7
331
148E
  5
1484
331
1351
  5
1353
331
14CF
  5
14C3
331
148A
  5
1480
331
1556
  5
14EF
331
1597
  5
157B
331
14CB
  5
14C1
331
1552
  5
14EB
331
1593
  5
1577
331
154E
  5
14E7
331
158F
  5
1573
331
154A
  5
14E3
331
158B
  5
156F
331
18AF
  5
157E
331
141E
  5
137E
331
145F
  5
1455
331
145B
  5
1451
331
1457
  5
144D
331
1382
  5
137B
331
1453
  5
1449
331
1486
  5
147C
331
14C7
  5
14BD
331
1482
  5
1478
331
14C3
  5
14B9
331
147E
  5
1474
331
3C8
  5
3CA
331
14BF
  5
14B5
331
147A
  5
1470
331
3C4
  5
3C6
331
1546
  5
14DF
331
1587
  5
156B
331
14BB
  5
14B1
331
3C0
  5
3C2
331
1542
  5
14DB
331
1583
  5
1567
331
157F
  5
1563
331
14F2
  5
14D6
331
157B
  5
155F
331
137E
  5
1377
331
144F
  5
1445
331
137A
  5
1373
331
144B
  5
1441
331
1447
  5
143D
331
1376
  5
1586
331
1443
  5
1439
331
1372
  5
1582
331
14B6
  5
14AC
331
14B2
  5
14A8
331
14AE
  5
14A4
331
14EF
  5
14D3
331
14AA
  5
14A0
331
1576
  5
155A
331
136D
  5
136C
331
14EB
  5
14CF
331
1572
  5
1556
331
1369
  5
136B
331
156E
  5
1552
331
156A
  5
154E
331
3BF
  5
3C1
331
3BB
  5
3BD
331
143E
  5
1434
331
143A
  5
1430
331
1477
  5
146D
331
1436
  5
142C
331
1473
  5
1469
331
1432
  5
1428
331
14A6
  5
149C
331
14E7
  5
159D
331
14A2
  5
1498
331
454
  5
A9E
331
1365
  5
1367
331
14E3
  5
1598
331
149E
  5
1494
331
1361
  5
1363
331
14DF
  5
1594
331
149A
  5
1490
331
135D
  5
135F
331
1566
  5
154A
331
14DB
  5
1590
331
1359
  5
135B
331
1562
  5
1546
331
155E
  5
1526
331
155A
  5
14F3
331
3B7
  5
3B9
331
159B
  5
18AE
331
3B3
  5
3B5
331
142E
  5
1424
331
146F
  5
1465
331
142A
  5
1420
331
146B
  5
1461
331
1426
  5
13B5
331
1467
  5
145D
331
1422
  5
1382
331
1463
  5
1459
331
1495
  5
148B
331
14D6
  5
14CA
331
1491
  5
1487
331
14D2
  5
14C6
331
1354
  5
1356
331
148D
  5
1483
331
14CE
  5
158C
331
1350
  5
1352
331
1489
  5
147F
331
1555
  5
14EE
331
1596
  5
157A
331
14CA
  5
14C0
331
1551
  5
14EA
331
1592
  5
1576
331
154D
  5
14E6
331
158E
  5
1572
331
1549
  5
14E2
331
158A
  5
156E
331
18AE
  5
3B1
331
141D
  5
137D
331
145E
  5
1454
331
145A
  5
1450
331
1456
  5
144C
331
1385
  5
158A
331
1381
  5
137A
331
1452
  5
1448
331
1485
  5
147B
331
14C6
  5
14BC
331
1481
  5
1477
331
14C2
  5
14B8
331
3CB
  5
3FC
331
147D
  5
1473
331
14BE
  5
14B4
331
3C7
  5
3C9
331
1479
  5
146F
331
14BA
  5
14B0
331
1545
  5
14DE
331
1586
  5
156A
331
3C3
  5
3C5
331
1541
  5
14DA
331
1582
  5
1566
331
14F5
  5
14D9
331
157E
  5
1562
331
14F1
  5
14D5
331
157A
  5
155E
331
137D
  5
1376
331
144E
  5
1444
331
1379
  5
1372
331
144A
  5
1440
331
1446
  5
143C
331
1375
  5
1585
331
1371
  5
1370
331
1442
  5
1438
331
14B5
  5
14AB
331
14B1
  5
14A7
331
14AD
  5
14A3
331
14EE
  5
14D2
331
14A9
  5
149F
331
1575
  5
1559
331
136C
  5
1581
331
14EA
  5
14CE
331
1571
  5
1555
331
1368
  5
136A
331
156D
  5
1551
331
1569
  5
154D
331
3BE
  5
3C0
331
3BA
  5
3BC
331
143D
  5
1433
331
1439
  5
142F
331
1435
  5
142B
331
1476
  5
146C
331
1431
  5
1427
331
1472
  5
1468
331
14A5
  5
149B
331
14E6
  5
159C
331
14A1
  5
1497
331
14E2
  5
1597
331
1364
  5
1366
331
149D
  5
1493
331
14DE
  5
1593
331
1360
  5
1362
331
1499
  5
148F
331
14DA
  5
158F
331
1565
  5
1549
331
135C
  5
135E
331
1561
  5
1545
331
1358
  5
135A
331
155D
  5
14F6
331
1559
  5
14F2
331
3B6
  5
3B8
331
159A
  5
163C
331
3B2
  5
3B4
331
142D
  5
1423
331
146E
  5
1464
331
1429
  5
141F
331
146A
  5
1460
331
1425
  5
1385
331
1466
  5
145C
331
1421
  5
1381
331
1462
  5
1458
331
1494
  5
148A
331
14D5
  5
14C9
331
1357
  5
1359
331
1490
  5
1486
331
14D1
  5
14C5
331
1353
  5
1355
331
148C
  5
1482
331
14CD
  5
158B
331
1488
  5
147E
331
14C9
  5
14BF
331
1554
  5
14ED
331
1595
  5
1579
331
3D2
  5
402
331
1550
  5
14E9
331
1591
  5
1575
331
154C
  5
14E5
331
158D
  5
1571
331
1548
  5
14E1
331
1589
  5
156D
331
18B1
  5
3B0
331
141C
  5
137C
331
145D
  5
1453
331
1459
  5
144F
331
1455
  5
144B
331
1384
  5
1589
331
1380
  5
1379
331
1451
  5
1447
331
1484
  5
147A
331
14C5
  5
14BB
331
1480
  5
1476
331
14C1
  5
14B7
331
3CA
  5
3D2
331
147C
  5
1472
331
14BD
  5
14B3
331
3C6
  5
3C8
331
1478
  5
146E
331
14B9
  5
14AF
331
1544
  5
14DD
331
1585
  5
1569
331
3C2
  5
3C4
331
1581
  5
1565
331
14F4
  5
14D8
331
157D
  5
1561
331
14F0
  5
14D4
331
1579
  5
155D
331
137C
  5
1375
331
144D
  5
1443
331
1378
  5
1371
331
1449
  5
143F
331
1445
  5
143B
331
1374
  5
1584
331
1370
  5
136F
331
1441
  5
1437
331
14B4
  5
14AA
331
14B0
  5
14A6
331
14AC
  5
14A2
331
14ED
  5
14D1
331
136F
  5
136E
331
14A8
  5
149E
331
14E9
  5
14CD
331
1574
  5
1558
331
136B
  5
1580
331
1570
  5
1554
331
156C
  5
1550
331
1568
  5
154C
331
3BD
  5
3BF
331
3B9
  5
3BB
331
143C
  5
1432
331
1438
  5
142E
331
1434
  5
142A
331
1475
  5
146B
331
1430
  5
1426
331
1471
  5
1467
331
14A4
  5
149A
331
14E5
  5
159B
331
1367
  5
1369
331
14A0
  5
1496
331
14E1
  5
1596
331
1363
  5
1365
331
149C
  5
1492
331
14DD
  5
1592
331
135F
  5
1361
331
1498
  5
148E
331
14D9
  5
158E
331
402
  5
455
331
1564
  5
1548
331
135B
  5
135D
331
1560
  5
1544
331
155C
  5
14F5
331
159D
  5
18B1
331
3B5
  5
3B7
331
1558
  5
14F1
331
3B1
  5
3B3
331
142C
  5
1422
331
146D
  5
1463
331
1428
  5
141E
331
1469
  5
145F
331
1424
  5
1384
331
1465
  5
145B
331
1420
  5
1380
331
1461
  5
1457
  0
ACDBDETAILVIEWSTYLE
  5
1AC
102
{ACAD_XDICTIONARY
360
19AC
102
}
102
{ACAD_REACTORS
330
1AB
102
}
330
1AB
100
AcDbModelDocViewStyle
 70
     0
  3
Imperial24
290
     0
100
AcDbDetailViewStyle
 70
     0
 71
     0
 90
        3
 71
     1
340
11
 62
   256
 40
0.24
340
0
 62
   256
 40
0.24
300

 40
0.36
280
     3
 71
     2
340
16
 90
       25
 62
   256
 71
     3
340
11
 62
   256
 40
0.24
 90
        1
 40
0.75
 90
        1
300
%<\AcVar ViewType \f "%tc1">% %<\AcVar ViewDetailId>%\PSCALE %<\AcVar ViewScale \f "%sn">%
 71
     4
340
16
 90
       25
 62
   256
340
16
 90
       25
 62
   256
280
     0
  0
ACDBDETAILVIEWSTYLE
  5
2FF
102
{ACAD_XDICTIONARY
360
19B0
102
}
102
{ACAD_REACTORS
330
1AB
102
}
330
1AB
100
AcDbModelDocViewStyle
 70
     0
  3
Metric50
290
     0
100
AcDbDetailViewStyle
 70
     0
 71
     0
 90
        3
 71
     1
340
11
 62
   256
 40
5.0
340
0
 62
   256
 40
5.0
300

 40
0.0
280
     1
 71
     2
340
16
 90
       25
 62
   256
 71
     3
340
11
 62
   256
 40
5.0
 90
        0
 40
15.0
 90
        1
300
%<\AcVar ViewDetailId>% (%<\AcVar ViewScale \f "%sn">%)
 71
     4
340
16
 90
       25
 62
   256
340
16
 90
       25
 62
   256
280
     0
  0
LAYOUT
  5
22
102
{ACAD_XDICTIONARY
360
194
102
}
102
{ACAD_REACTORS
330
1A
102
}
330
1A
100
AcDbPlotSettings
  1

  2
Adobe PDF.pc3
  4
A3
  6

 40
3.174999952316284
 41
3.174999952316284
 42
3.17498779296875
 43
3.17498779296875
 44
420.1583251953125
 45
297.0318298339844
 46
-3.115056175593849
 47
-3.172673706794341
 48
0.0
 49
0.0
140
0.0
141
0.0
142
1.0
143
2.0
 70
 11940
 72
     1
 73
     0
 74
     1
  7
monochrome.ctb
 75
     0
147
0.4893484404365136
 76
     0
 77
     2
 78
   300
148
0.038441977687171
149
0.0271839699360044
100
AcDbLayout
  1
Model
 70
     1
 71
     0
 10
0.0
 20
0.0
 11
12.0
 21
9.0
 12
0.0
 22
0.0
 32
0.0
 14
0.0
 24
0.0
 34
0.0
 15
0.0
 25
0.0
 35
0.0
146
0.0
 13
0.0
 23
0.0
 33
0.0
 16
1.0
 26
0.0
 36
0.0
 17
0.0
 27
1.0
 37
0.0
 76
     0
330
1F
331
94
1001
ACAD_PSEXT
1000
Adobe PDF.pc3
1000
Adobe PDF Converter
1000
Documents\*.pdf
1000

1070
     0
  0
LAYOUT
  5
59
102
{ACAD_REACTORS
330
1A
102
}
330
1A
100
AcDbPlotSettings
  1

  2
None
  4

  6

 40
0.0
 41
0.0
 42
0.0
 43
0.0
 44
0.0
 45
0.0
 46
0.0
 47
0.0
 48
0.0
 49
0.0
140
0.0
141
0.0
142
1.0
143
1.0
 70
   688
 72
     0
 73
     0
 74
     5
  7

 75
    16
147
1.0
 76
     0
 77
     2
 78
   300
148
0.0
149
0.0
100
AcDbLayout
  1
レイアウト1
 70
     1
 71
     1
 10
0.0
 20
0.0
 11
12.0
 21
9.0
 12
0.0
 22
0.0
 32
0.0
 14
0.0
 24
0.0
 34
0.0
 15
0.0
 25
0.0
 35
0.0
146
0.0
 13
0.0
 23
0.0
 33
0.0
 16
1.0
 26
0.0
 36
0.0
 17
0.0
 27
1.0
 37
0.0
 76
     0
330
58
  0
LAYOUT
  5
5E
102
{ACAD_REACTORS
330
1A
102
}
330
1A
100
AcDbPlotSettings
  1

  2
None
  4

  6

 40
0.0
 41
0.0
 42
0.0
 43
0.0
 44
0.0
 45
0.0
 46
0.0
 47
0.0
 48
0.0
 49
0.0
140
0.0
141
0.0
142
1.0
143
1.0
 70
   688
 72
     0
 73
     0
 74
     5
  7

 75
    16
147
1.0
 76
     0
 77
     2
 78
   300
148
0.0
149
0.0
100
AcDbLayout
  1
レイアウト2
 70
     1
 71
     2
 10
0.0
 20
0.0
 11
12.0
 21
9.0
 12
0.0
 22
0.0
 32
0.0
 14
0.0
 24
0.0
 34
0.0
 15
0.0
 25
0.0
 35
0.0
146
0.0
 13
0.0
 23
0.0
 33
0.0
 16
1.0
 26
0.0
 36
0.0
 17
0.0
 27
1.0
 37
0.0
 76
     0
330
5D
  0
MATERIAL
  5
97
102
{ACAD_XDICTIONARY
360
188
102
}
102
{ACAD_REACTORS
330
72
102
}
330
72
100
AcDbMaterial
  1
ByBlock
 94
       63
  0
MATERIAL
  5
96
102
{ACAD_XDICTIONARY
360
186
102
}
102
{ACAD_REACTORS
330
72
102
}
330
72
100
AcDbMaterial
  1
ByLayer
 94
       63
  0
MATERIAL
  5
98
102
{ACAD_XDICTIONARY
360
110
102
}
102
{ACAD_REACTORS
330
72
102
}
330
72
100
AcDbMaterial
  1
Global
 43
0.0208000000566244
 43
0.0
 43
0.0
 43
0.0
 43
0.0
 43
0.0208000000566244
 43
0.0
 43
0.0
 43
0.0
 43
0.0
 43
1.0
 43
0.0
 43
0.0
 43
0.0
 43
0.0
 43
1.0
 49
0.0208000000566244
 49
0.0
 49
0.0
 49
0.0
 49
0.0
 49
0.0208000000566244
 49
0.0
 49
0.0
 49
0.0
 49
0.0
 49
1.0
 49
0.0
 49
0.0
 49
0.0
 49
0.0
 49
1.0
142
0.0208000000566244
142
0.0
142
0.0
142
0.0
142
0.0
142
0.0208000000566244
142
0.0
142
0.0
142
0.0
142
0.0
142
1.0
142
0.0
142
0.0
142
0.0
142
0.0
142
1.0
144
0.0208000000566244
144
0.0
144
0.0
144
0.0
144
0.0
144
0.0208000000566244
144
0.0
144
0.0
144
0.0
144
0.0
144
1.0
144
0.0
144
0.0
144
0.0
144
0.0
144
1.0
 94
       63
1001
ACAD
1070
    -1
1070
     3
1070
     0
1000

1071
        0
1070
     0
  0
MLEADERSTYLE
  5
D8
102
{ACAD_REACTORS
330
D7
102
}
330
D7
100
AcDbMLeaderStyle
179
     2
170
     2
171
     1
172
     0
 90
        2
 40
0.0
 41
0.0
173
     1
 91
-1056964608
340
14
 92
       -2
290
     1
 42
0.09
291
     1
 43
0.36
  3
Standard
 44
0.18
300

342
11
174
     1
178
     1
175
     1
176
     0
 93
-1056964608
 45
0.18
292
     0
297
     0
 46
0.18
 94
-1056964608
 47
1.0
 49
1.0
140
1.0
293
     1
141
0.0
294
     1
177
     0
142
1.0
295
     0
296
     0
143
0.125
271
     0
272
     9
273
     9
  0
MLINESTYLE
  5
18
102
{ACAD_REACTORS
330
17
102
}
330
17
100
AcDbMlineStyle
  2
STANDARD
 70
     0
  3

 62
   256
 51
90.0
 52
90.0
 71
     2
 49
0.5
 62
   256
  6
BYLAYER
 49
-0.5
 62
   256
  6
BYLAYER
  0
ACDBPLACEHOLDER
  5
F
102
{ACAD_REACTORS
330
E
102
}
330
E
  0
ACDBPLACEHOLDER
  5
2FD
102
{ACAD_REACTORS
330
E
102
}
330
E
  0
SCALE
  5
B7
102
{ACAD_REACTORS
330
B6
102
}
330
B6
100
AcDbScale
 70
     0
300
1:1
140
1.0
141
1.0
290
     1
  0
SCALE
  5
124
102
{ACAD_REACTORS
330
B6
102
}
330
B6
100
AcDbScale
 70
     0
300
1:2
140
1.0
141
2.0
290
     0
  0
SCALE
  5
125
102
{ACAD_REACTORS
330
B6
102
}
330
B6
100
AcDbScale
 70
     0
300
1:4
140
1.0
141
4.0
290
     0
  0
SCALE
  5
126
102
{ACAD_REACTORS
330
B6
102
}
330
B6
100
AcDbScale
 70
     0
300
1:5
140
1.0
141
5.0
290
     0
  0
SCALE
  5
127
102
{ACAD_REACTORS
330
B6
102
}
330
B6
100
AcDbScale
 70
     0
300
1:8
140
1.0
141
8.0
290
     0
  0
SCALE
  5
128
102
{ACAD_REACTORS
330
B6
102
}
330
B6
100
AcDbScale
 70
     0
300
1:10
140
1.0
141
10.0
290
     0
  0
SCALE
  5
129
102
{ACAD_REACTORS
330
B6
102
}
330
B6
100
AcDbScale
 70
     0
300
1:16
140
1.0
141
16.0
290
     0
  0
SCALE
  5
12A
102
{ACAD_REACTORS
330
B6
102
}
330
B6
100
AcDbScale
 70
     0
300
1:20
140
1.0
141
20.0
290
     0
  0
SCALE
  5
12B
102
{ACAD_REACTORS
330
B6
102
}
330
B6
100
AcDbScale
 70
     0
300
1:30
140
1.0
141
30.0
290
     0
  0
SCALE
  5
12C
102
{ACAD_REACTORS
330
B6
102
}
330
B6
100
AcDbScale
 70
     0
300
1:40
140
1.0
141
40.0
290
     0
  0
SCALE
  5
12D
102
{ACAD_REACTORS
330
B6
102
}
330
B6
100
AcDbScale
 70
     0
300
1:50
140
1.0
141
50.0
290
     0
  0
SCALE
  5
12E
102
{ACAD_REACTORS
330
B6
102
}
330
B6
100
AcDbScale
 70
     0
300
1:100
140
1.0
141
100.0
290
     0
  0
SCALE
  5
12F
102
{ACAD_REACTORS
330
B6
102
}
330
B6
100
AcDbScale
 70
     0
300
2:1
140
2.0
141
1.0
290
     0
  0
SCALE
  5
130
102
{ACAD_REACTORS
330
B6
102
}
330
B6
100
AcDbScale
 70
     0
300
4:1
140
4.0
141
1.0
290
     0
  0
SCALE
  5
131
102
{ACAD_REACTORS
330
B6
102
}
330
B6
100
AcDbScale
 70
     0
300
8:1
140
8.0
141
1.0
290
     0
  0
SCALE
  5
132
102
{ACAD_REACTORS
330
B6
102
}
330
B6
100
AcDbScale
 70
     0
300
10:1
140
10.0
141
1.0
290
     0
  0
SCALE
  5
133
102
{ACAD_REACTORS
330
B6
102
}
330
B6
100
AcDbScale
 70
     0
300
100:1
140
100.0
141
1.0
290
     0
  0
SCALE
  5
134
102
{ACAD_REACTORS
330
B6
102
}
330
B6
100
AcDbScale
 70
     0
300
1/128" = 1'-0"
140
0.0078125
141
12.0
290
     0
  0
SCALE
  5
135
102
{ACAD_REACTORS
330
B6
102
}
330
B6
100
AcDbScale
 70
     0
300
1/64" = 1'-0"
140
0.015625
141
12.0
290
     0
  0
SCALE
  5
136
102
{ACAD_REACTORS
330
B6
102
}
330
B6
100
AcDbScale
 70
     0
300
1/32" = 1'-0"
140
0.03125
141
12.0
290
     0
  0
SCALE
  5
137
102
{ACAD_REACTORS
330
B6
102
}
330
B6
100
AcDbScale
 70
     0
300
1/16" = 1'-0"
140
0.0625
141
12.0
290
     0
  0
SCALE
  5
138
102
{ACAD_REACTORS
330
B6
102
}
330
B6
100
AcDbScale
 70
     0
300
3/32" = 1'-0"
140
0.09375
141
12.0
290
     0
  0
SCALE
  5
139
102
{ACAD_REACTORS
330
B6
102
}
330
B6
100
AcDbScale
 70
     0
300
1/8" = 1'-0"
140
0.125
141
12.0
290
     0
  0
SCALE
  5
13A
102
{ACAD_REACTORS
330
B6
102
}
330
B6
100
AcDbScale
 70
     0
300
3/16" = 1'-0"
140
0.1875
141
12.0
290
     0
  0
SCALE
  5
13B
102
{ACAD_REACTORS
330
B6
102
}
330
B6
100
AcDbScale
 70
     0
300
1/4" = 1'-0"
140
0.25
141
12.0
290
     0
  0
SCALE
  5
13C
102
{ACAD_REACTORS
330
B6
102
}
330
B6
100
AcDbScale
 70
     0
300
3/8" = 1'-0"
140
0.375
141
12.0
290
     0
  0
SCALE
  5
13D
102
{ACAD_REACTORS
330
B6
102
}
330
B6
100
AcDbScale
 70
     0
300
1/2" = 1'-0"
140
0.5
141
12.0
290
     0
  0
SCALE
  5
13E
102
{ACAD_REACTORS
330
B6
102
}
330
B6
100
AcDbScale
 70
     0
300
3/4" = 1'-0"
140
0.75
141
12.0
290
     0
  0
SCALE
  5
13F
102
{ACAD_REACTORS
330
B6
102
}
330
B6
100
AcDbScale
 70
     0
300
1" = 1'-0"
140
1.0
141
12.0
290
     0
  0
SCALE
  5
140
102
{ACAD_REACTORS
330
B6
102
}
330
B6
100
AcDbScale
 70
     0
300
1-1/2" = 1'-0"
140
1.5
141
12.0
290
     0
  0
SCALE
  5
141
102
{ACAD_REACTORS
330
B6
102
}
330
B6
100
AcDbScale
 70
     0
300
3" = 1'-0"
140
3.0
141
12.0
290
     0
  0
SCALE
  5
142
102
{ACAD_REACTORS
330
B6
102
}
330
B6
100
AcDbScale
 70
     0
300
6" = 1'-0"
140
6.0
141
12.0
290
     0
  0
SCALE
  5
143
102
{ACAD_REACTORS
330
B6
102
}
330
B6
100
AcDbScale
 70
     0
300
1'-0" = 1'-0"
140
12.0
141
12.0
290
     0
  0
ACDBSECTIONVIEWSTYLE
  5
1AA
102
{ACAD_XDICTIONARY
360
19AA
102
}
102
{ACAD_REACTORS
330
1A8
102
}
330
1A8
100
AcDbModelDocViewStyle
 70
     0
  3
Imperial24
290
     0
100
AcDbSectionViewStyle
 70
     0
 71
     0
 90
       78
 71
     1
340
11
 62
   256
 40
0.24
340
0
340
0
 62
   256
 40
0.24
300
I, O, Q, S, X, Z
 40
0.48
 90
        3
 40
0.18
 90
        1
 71
     2
340
16
 90
       25
 62
   256
340
16
 90
       50
 62
   256
 40
0.24
 40
0.0
 40
0.24
 71
     3
340
11
 62
   256
 40
0.24
 90
        1
 40
0.75
 90
        1
300
%<\AcVar ViewType \f "%tc1">% %<\AcVar ViewSectionStartId>%-%<\AcVar ViewSectionEndId>%\PSCALE %<\AcVar ViewScale \f "%sn">%
 71
     4
 62
   256
 62
   257
300
ANSI31
 40
1.0
 90
        0
290
     0
290
     0
 90
        6
 40
0.0
 40
1.570796326794896
 40
0.2617993877991494
 40
1.308996938995747
 40
-0.2617993877991494
 40
1.832595714594046
  0
ACDBSECTIONVIEWSTYLE
  5
2FE
102
{ACAD_XDICTIONARY
360
19AE
102
}
102
{ACAD_REACTORS
330
1A8
102
}
330
1A8
100
AcDbModelDocViewStyle
 70
     0
  3
Metric50
290
     0
100
AcDbSectionViewStyle
 70
     0
 71
     0
 90
      102
 71
     1
340
11
 62
   256
 40
5.0
340
0
340
0
 62
   256
 40
5.0
300
I, O, Q, S, X, Z
 40
10.0
 90
        0
 40
2.5
 90
        0
 71
     2
340
16
 90
       25
 62
   256
340
16
 90
       50
 62
   256
 40
5.0
 40
2.5
 40
5.0
 71
     3
340
11
 62
   256
 40
5.0
 90
        0
 40
15.0
 90
        1
300
%<\AcVar ViewSectionStartId>%-%<\AcVar ViewSectionEndId>% (%<\AcVar ViewScale \f "%sn">%)
 71
     4
 62
   256
 62
   257
300
ANSI31
 40
1.0
 90
        0
290
     0
290
     0
 90
        6
 40
0.0
 40
1.570796326794896
 40
0.2617993877991494
 40
1.308996938995747
 40
-0.2617993877991494
 40
1.832595714594046
  0
TABLESTYLE
  5
87
102
{ACAD_XDICTIONARY
360
104
102
}
102
{ACAD_REACTORS
330
86
102
}
330
86
100
AcDbTableStyle
280
     0
  3
Standard
 70
     0
 71
     0
 40
0.06
 41
0.06
280
     0
281
     0
  7
Standard
140
0.18
170
     2
 62
     0
 63
     7
283
     0
 90
      512
 91
        0
  1

274
    -2
284
     1
 64
     0
275
    -2
285
     1
 65
     0
276
    -2
286
     1
 66
     0
277
    -2
287
     1
 67
     0
278
    -2
288
     1
 68
     0
279
    -2
289
     1
 69
     0
  7
Standard
140
0.25
170
     5
 62
     0
 63
     7
283
     0
 90
      512
 91
        0
  1

274
    -2
284
     1
 64
     0
275
    -2
285
     1
 65
     0
276
    -2
286
     1
 66
     0
277
    -2
287
     1
 67
     0
278
    -2
288
     1
 68
     0
279
    -2
289
     1
 69
     0
  7
Standard
140
0.18
170
     5
 62
     0
 63
     7
283
     0
 90
      512
 91
        0
  1

274
    -2
284
     1
 64
     0
275
    -2
285
     1
 65
     0
276
    -2
286
     1
 66
     0
277
    -2
287
     1
 67
     0
278
    -2
288
     1
 68
     0
279
    -2
289
     1
 69
     0
  0
VISUALSTYLE
  5
9F
102
{ACAD_XDICTIONARY
360
19E0
102
}
102
{ACAD_REACTORS
330
99
102
}
330
99
100
AcDbVisualStyle
  2
2dWireframe
 70
     4
177
     2
291
     0
 71
     0
176
     1
 72
     2
176
     1
 73
     1
176
     1
 90
        0
176
     1
 40
0.6
176
     1
 41
30.0
176
     1
 63
     7
421
 16777215
176
     1
 74
     1
176
     1
 91
        4
176
     1
 64
     7
176
     1
 65
   257
176
     1
 75
     1
176
     1
175
     1
176
     1
 42
1.0
176
     1
 92
        0
176
     1
 66
   257
176
     1
 43
1.0
176
     1
 76
     1
176
     1
 77
     6
176
     1
 78
     2
176
     1
 67
     7
176
     1
 79
     5
176
     1
170
     0
176
     1
171
     0
176
     1
290
     0
176
     1
 93
        1
176
     1
 44
0.0
176
     1
173
     0
176
     1
1001
ACAD
1000
AcDbSavedByObjectVersion
1070
     0
  0
VISUALSTYLE
  5
9E
102
{ACAD_XDICTIONARY
360
19DE
102
}
102
{ACAD_REACTORS
330
99
102
}
330
99
100
AcDbVisualStyle
  2
Basic
 70
     7
177
     2
291
     1
 71
     1
176
     1
 72
     0
176
     1
 73
     1
176
     1
 90
        0
176
     1
 40
0.6
176
     1
 41
30.0
176
     1
 63
     7
421
 16777215
176
     1
 74
     0
176
     1
 91
        4
176
     1
 64
     7
176
     1
 65
   257
176
     1
 75
     1
176
     1
175
     1
176
     1
 42
1.0
176
     1
 92
        8
176
     1
 66
     7
176
     1
 43
1.0
176
     1
 76
     1
176
     1
 77
     6
176
     1
 78
     2
176
     1
 67
     7
176
     1
 79
     5
176
     1
170
     0
176
     1
171
     0
176
     1
290
     0
176
     1
 93
        1
176
     1
 44
0.0
176
     1
173
     0
176
     1
1001
ACAD
1000
AcDbSavedByObjectVersion
1070
     0
  0
VISUALSTYLE
  5
A5
102
{ACAD_XDICTIONARY
360
19EC
102
}
102
{ACAD_REACTORS
330
99
102
}
330
99
100
AcDbVisualStyle
  2
Brighten
 70
    12
177
     2
291
     1
 71
     2
176
     1
 72
     2
176
     1
 73
     1
176
     1
 90
        0
176
     1
 40
0.6
176
     1
 41
30.0
176
     1
 63
     7
421
 16777215
176
     1
 74
     1
176
     1
 91
        4
176
     1
 64
     7
176
     1
 65
   257
176
     1
 75
     1
176
     1
175
     1
176
     1
 42
1.0
176
     1
 92
        8
176
     1
 66
     7
176
     1
 43
1.0
176
     1
 76
     1
176
     1
 77
     6
176
     1
 78
     2
176
     1
 67
     7
176
     1
 79
     5
176
     1
170
     0
176
     1
171
     0
176
     1
290
     0
176
     1
 93
        1
176
     1
 44
50.0
176
     1
173
     0
176
     1
1001
ACAD
1000
AcDbSavedByObjectVersion
1070
     0
  0
VISUALSTYLE
  5
A9
102
{ACAD_XDICTIONARY
360
19F4
102
}
102
{ACAD_REACTORS
330
99
102
}
330
99
100
AcDbVisualStyle
  2
ColorChange
 70
    16
177
     2
291
     1
 71
     2
176
     1
 72
     2
176
     1
 73
     3
176
     1
 90
        0
176
     1
 40
0.6
176
     1
 41
30.0
176
     1
 63
     8
421
  8421504
176
     1
 74
     1
176
     1
 91
        4
176
     1
 64
     7
176
     1
 65
   257
176
     1
 75
     1
176
     1
175
     1
176
     1
 42
1.0
176
     1
 92
        8
176
     1
 66
     8
424
  8421504
176
     1
 43
1.0
176
     1
 76
     1
176
     1
 77
     6
176
     1
 78
     2
176
     1
 67
     7
176
     1
 79
     5
176
     1
170
     0
176
     1
171
     0
176
     1
290
     0
176
     1
 93
        1
176
     1
 44
0.0
176
     1
173
     0
176
     1
1001
ACAD
1000
AcDbSavedByObjectVersion
1070
     0
  0
VISUALSTYLE
  5
A2
102
{ACAD_XDICTIONARY
360
19E6
102
}
102
{ACAD_REACTORS
330
99
102
}
330
99
100
AcDbVisualStyle
  2
Conceptual
 70
     9
177
     2
291
     0
 71
     3
176
     1
 72
     2
176
     1
 73
     1
176
     1
 90
        0
176
     1
 40
0.6
176
     1
 41
30.0
176
     1
 63
     7
421
 16777215
176
     1
 74
     2
176
     1
 91
        2
176
     1
 64
     7
176
     1
 65
   257
176
     1
 75
     1
176
     1
175
     1
176
     1
 42
40.0
176
     1
 92
        8
176
     1
 66
     7
176
     1
 43
1.0
176
     1
 76
     1
176
     1
 77
     6
176
     1
 78
     2
176
     1
 67
     7
176
     1
 79
     3
176
     1
170
     0
176
     1
171
     0
176
     1
290
     0
176
     1
 93
        1
176
     1
 44
0.0
176
     1
173
     0
176
     1
1001
ACAD
1000
AcDbSavedByObjectVersion
1070
     0
  0
VISUALSTYLE
  5
A4
102
{ACAD_XDICTIONARY
360
19EA
102
}
102
{ACAD_REACTORS
330
99
102
}
330
99
100
AcDbVisualStyle
  2
Dim
 70
    11
177
     2
291
     1
 71
     2
176
     1
 72
     2
176
     1
 73
     1
176
     1
 90
        0
176
     1
 40
0.6
176
     1
 41
30.0
176
     1
 63
     7
421
 16777215
176
     1
 74
     1
176
     1
 91
        4
176
     1
 64
     7
176
     1
 65
   257
176
     1
 75
     1
176
     1
175
     1
176
     1
 42
1.0
176
     1
 92
        8
176
     1
 66
     7
176
     1
 43
1.0
176
     1
 76
     1
176
     1
 77
     6
176
     1
 78
     2
176
     1
 67
     7
176
     1
 79
     5
176
     1
170
     0
176
     1
171
     0
176
     1
290
     0
176
     1
 93
        1
176
     1
 44
-50.0
176
     1
173
     0
176
     1
1001
ACAD
1000
AcDbSavedByObjectVersion
1070
     0
  0
VISUALSTYLE
  5
175
102
{ACAD_XDICTIONARY
360
19FA
102
}
102
{ACAD_REACTORS
330
99
102
}
330
99
100
AcDbVisualStyle
  2
EdgeColorOff
 70
    22
177
     2
291
     1
 71
     2
176
     0
 72
     2
176
     0
 73
     0
176
     0
 90
        0
176
     0
 40
0.6
176
     0
 41
30.0
176
     0
 63
     7
421
 16777215
176
     0
 74
     1
176
     0
 91
        4
176
     0
 64
     7
176
     0
 65
   257
176
     0
 75
     1
176
     0
175
     1
176
     0
 42
1.0
176
     0
 92
        8
176
     2
 66
     7
176
     0
 43
1.0
176
     0
 76
     1
176
     0
 77
     6
176
     0
 78
     2
176
     0
 67
     7
176
     0
 79
     5
176
     0
170
     0
176
     0
171
     0
176
     0
290
     0
176
     0
 93
        1
176
     0
 44
0.0
176
     0
173
     0
176
     0
1001
ACAD
1000
AcDbSavedByObjectVersion
1070
     0
  0
VISUALSTYLE
  5
A8
102
{ACAD_XDICTIONARY
360
19F2
102
}
102
{ACAD_REACTORS
330
99
102
}
330
99
100
AcDbVisualStyle
  2
Facepattern
 70
    15
177
     2
291
     1
 71
     2
176
     1
 72
     2
176
     1
 73
     1
176
     1
 90
        0
176
     1
 40
0.6
176
     1
 41
30.0
176
     1
 63
     7
421
 16777215
176
     1
 74
     1
176
     1
 91
        4
176
     1
 64
     7
176
     1
 65
   257
176
     1
 75
     1
176
     1
175
     1
176
     1
 42
1.0
176
     1
 92
        8
176
     1
 66
     7
176
     1
 43
1.0
176
     1
 76
     1
176
     1
 77
     6
176
     1
 78
     2
176
     1
 67
     7
176
     1
 79
     5
176
     1
170
     0
176
     1
171
     0
176
     1
290
     0
176
     1
 93
        1
176
     1
 44
0.0
176
     1
173
     0
176
     1
1001
ACAD
1000
AcDbSavedByObjectVersion
1070
     0
  0
VISUALSTYLE
  5
9A
102
{ACAD_XDICTIONARY
360
19D6
102
}
102
{ACAD_REACTORS
330
99
102
}
330
99
100
AcDbVisualStyle
  2
Flat
 70
     0
177
     2
291
     1
 71
     2
176
     1
 72
     1
176
     1
 73
     1
176
     1
 90
        2
176
     1
 40
0.6
176
     1
 41
30.0
176
     1
 63
     7
421
 16777215
176
     1
 74
     0
176
     1
 91
        0
176
     1
 64
     7
176
     1
 65
   257
176
     1
 75
     1
176
     1
175
     1
176
     1
 42
1.0
176
     1
 92
        8
176
     1
 66
     7
176
     1
 43
1.0
176
     1
 76
     1
176
     1
 77
     6
176
     1
 78
     2
176
     1
 67
     7
176
     1
 79
     5
176
     1
170
     0
176
     1
171
     0
176
     1
290
     0
176
     1
 93
       13
176
     1
 44
0.0
176
     1
173
     0
176
     1
1001
ACAD
1000
AcDbSavedByObjectVersion
1070
     0
  0
VISUALSTYLE
  5
9B
102
{ACAD_XDICTIONARY
360
19D8
102
}
102
{ACAD_REACTORS
330
99
102
}
330
99
100
AcDbVisualStyle
  2
FlatWithEdges
 70
     1
177
     2
291
     1
 71
     2
176
     1
 72
     1
176
     1
 73
     1
176
     1
 90
        2
176
     1
 40
0.6
176
     1
 41
30.0
176
     1
 63
     7
421
 16777215
176
     1
 74
     1
176
     1
 91
        0
176
     1
 64
     7
176
     1
 65
   257
176
     1
 75
     1
176
     1
175
     1
176
     1
 42
1.0
176
     1
 92
        0
176
     1
 66
   257
176
     1
 43
1.0
176
     1
 76
     1
176
     1
 77
     6
176
     1
 78
     2
176
     1
 67
     7
176
     1
 79
     5
176
     1
170
     0
176
     1
171
     0
176
     1
290
     0
176
     1
 93
       13
176
     1
 44
0.0
176
     1
173
     0
176
     1
1001
ACAD
1000
AcDbSavedByObjectVersion
1070
     0
  0
VISUALSTYLE
  5
9C
102
{ACAD_XDICTIONARY
360
19DA
102
}
102
{ACAD_REACTORS
330
99
102
}
330
99
100
AcDbVisualStyle
  2
Gouraud
 70
     2
177
     2
291
     1
 71
     2
176
     1
 72
     2
176
     1
 73
     1
176
     1
 90
        2
176
     1
 40
0.6
176
     1
 41
30.0
176
     1
 63
     7
421
 16777215
176
     1
 74
     0
176
     1
 91
        0
176
     1
 64
     7
176
     1
 65
   257
176
     1
 75
     1
176
     1
175
     1
176
     1
 42
1.0
176
     1
 92
        0
176
     1
 66
     7
176
     1
 43
1.0
176
     1
 76
     1
176
     1
 77
     6
176
     1
 78
     2
176
     1
 67
     7
176
     1
 79
     5
176
     1
170
     0
176
     1
171
     0
176
     1
290
     0
176
     1
 93
       13
176
     1
 44
0.0
176
     1
173
     0
176
     1
1001
ACAD
1000
AcDbSavedByObjectVersion
1070
     0
  0
VISUALSTYLE
  5
9D
102
{ACAD_XDICTIONARY
360
19DC
102
}
102
{ACAD_REACTORS
330
99
102
}
330
99
100
AcDbVisualStyle
  2
GouraudWithEdges
 70
     3
177
     2
291
     1
 71
     2
176
     1
 72
     2
176
     1
 73
     1
176
     1
 90
        2
176
     1
 40
0.6
176
     1
 41
30.0
176
     1
 63
     7
421
 16777215
176
     1
 74
     1
176
     1
 91
        0
176
     1
 64
     7
176
     1
 65
   257
176
     1
 75
     1
176
     1
175
     1
176
     1
 42
1.0
176
     1
 92
        0
176
     1
 66
   257
176
     1
 43
1.0
176
     1
 76
     1
176
     1
 77
     6
176
     1
 78
     2
176
     1
 67
     7
176
     1
 79
     5
176
     1
170
     0
176
     1
171
     0
176
     1
290
     0
176
     1
 93
       13
176
     1
 44
0.0
176
     1
173
     0
176
     1
1001
ACAD
1000
AcDbSavedByObjectVersion
1070
     0
  0
VISUALSTYLE
  5
A1
102
{ACAD_XDICTIONARY
360
19E4
102
}
102
{ACAD_REACTORS
330
99
102
}
330
99
100
AcDbVisualStyle
  2
Hidden
 70
     6
177
     2
291
     0
 71
     1
176
     1
 72
     2
176
     1
 73
     2
176
     1
 90
        0
176
     1
 40
0.6
176
     1
 41
30.0
176
     1
 63
     7
421
 16777215
176
     1
 74
     2
176
     1
 91
        2
176
     1
 64
     7
176
     1
 65
   257
176
     1
 75
     2
176
     1
175
     1
176
     1
 42
40.0
176
     1
 92
        0
176
     1
 66
   257
176
     1
 43
1.0
176
     1
 76
     1
176
     1
 77
     6
176
     1
 78
     2
176
     1
 67
     7
176
     1
 79
     3
176
     1
170
     0
176
     1
171
     0
176
     1
290
     0
176
     1
 93
        1
176
     1
 44
0.0
176
     1
173
     0
176
     1
1001
ACAD
1000
AcDbSavedByObjectVersion
1070
     0
  0
VISUALSTYLE
  5
173
102
{ACAD_XDICTIONARY
360
19F6
102
}
102
{ACAD_REACTORS
330
99
102
}
330
99
100
AcDbVisualStyle
  2
JitterOff
 70
    20
177
     2
291
     1
 71
     2
176
     0
 72
     2
176
     0
 73
     0
176
     0
 90
        0
176
     0
 40
0.6
176
     0
 41
30.0
176
     0
 63
     7
421
 16777215
176
     0
 74
     1
176
     0
 91
        4
176
     0
 64
     7
176
     0
 65
   257
176
     0
 75
     1
176
     0
175
     1
176
     0
 42
1.0
176
     0
 92
       10
176
     2
 66
     7
176
     0
 43
1.0
176
     0
 76
     1
176
     0
 77
     6
176
     0
 78
     2
176
     0
 67
     7
176
     0
 79
     5
176
     0
170
     0
176
     0
171
     0
176
     0
290
     0
176
     0
 93
        1
176
     0
 44
0.0
176
     0
173
     0
176
     0
1001
ACAD
1000
AcDbSavedByObjectVersion
1070
     0
  0
VISUALSTYLE
  5
A7
102
{ACAD_XDICTIONARY
360
19F0
102
}
102
{ACAD_REACTORS
330
99
102
}
330
99
100
AcDbVisualStyle
  2
Linepattern
 70
    14
177
     2
291
     1
 71
     2
176
     1
 72
     2
176
     1
 73
     1
176
     1
 90
        0
176
     1
 40
0.6
176
     1
 41
30.0
176
     1
 63
     7
421
 16777215
176
     1
 74
     1
176
     1
 91
        4
176
     1
 64
     7
176
     1
 65
   257
176
     1
 75
     7
176
     1
175
     7
176
     1
 42
1.0
176
     1
 92
        8
176
     1
 66
     7
176
     1
 43
1.0
176
     1
 76
     1
176
     1
 77
     6
176
     1
 78
     2
176
     1
 67
     7
176
     1
 79
     5
176
     1
170
     0
176
     1
171
     0
176
     1
290
     0
176
     1
 93
        1
176
     1
 44
0.0
176
     1
173
     0
176
     1
1001
ACAD
1000
AcDbSavedByObjectVersion
1070
     0
  0
VISUALSTYLE
  5
174
102
{ACAD_XDICTIONARY
360
19F8
102
}
102
{ACAD_REACTORS
330
99
102
}
330
99
100
AcDbVisualStyle
  2
OverhangOff
 70
    21
177
     2
291
     1
 71
     2
176
     0
 72
     2
176
     0
 73
     0
176
     0
 90
        0
176
     0
 40
0.6
176
     0
 41
30.0
176
     0
 63
     7
421
 16777215
176
     0
 74
     1
176
     0
 91
        4
176
     0
 64
     7
176
     0
 65
   257
176
     0
 75
     1
176
     0
175
     1
176
     0
 42
1.0
176
     0
 92
        9
176
     2
 66
     7
176
     0
 43
1.0
176
     0
 76
     1
176
     0
 77
     6
176
     0
 78
     2
176
     0
 67
     7
176
     0
 79
     5
176
     0
170
     0
176
     0
171
     0
176
     0
290
     0
176
     0
 93
        1
176
     0
 44
0.0
176
     0
173
     0
176
     0
1001
ACAD
1000
AcDbSavedByObjectVersion
1070
     0
  0
VISUALSTYLE
  5
A3
102
{ACAD_XDICTIONARY
360
19E8
102
}
102
{ACAD_REACTORS
330
99
102
}
330
99
100
AcDbVisualStyle
  2
Realistic
 70
     8
177
     2
291
     0
 71
     2
176
     1
 72
     2
176
     1
 73
     0
176
     1
 90
        2
176
     1
 40
0.6
176
     1
 41
30.0
176
     1
 63
     7
421
 16777215
176
     1
 74
     0
176
     1
 91
        0
176
     1
 64
     7
176
     1
 65
   257
176
     1
 75
     1
176
     1
175
     1
176
     1
 42
1.0
176
     1
 92
        8
176
     1
 66
   257
176
     1
 43
1.0
176
     1
 76
     1
176
     1
 77
     6
176
     1
 78
     2
176
     1
 67
     7
176
     1
 79
     3
176
     1
170
     0
176
     1
171
     0
176
     1
290
     0
176
     1
 93
       13
176
     1
 44
0.0
176
     1
173
     0
176
     1
1001
ACAD
1000
AcDbSavedByObjectVersion
1070
     0
  0
VISUALSTYLE
  5
182
102
{ACAD_XDICTIONARY
360
1A04
102
}
102
{ACAD_REACTORS
330
99
102
}
330
99
100
AcDbVisualStyle
  2
Shaded
 70
    27
177
     2
291
     0
 71
     2
176
     1
 72
     2
176
     1
 73
     1
176
     1
 90
        2
176
     1
 40
0.6
176
     1
 41
30.0
176
     1
 63
     7
421
 16777215
176
     1
 74
     0
176
     1
 91
        4
176
     1
 64
     7
176
     1
 65
   257
176
     1
 75
     1
176
     1
175
     1
176
     1
 42
1.0
176
     1
 92
        8
176
     1
 66
   257
176
     1
 43
1.0
176
     1
 76
     1
176
     1
 77
     6
176
     1
 78
     2
176
     1
 67
     8
425
  7895160
176
     1
 79
     3
176
     1
170
     0
176
     1
171
     0
176
     1
290
     0
176
     1
 93
        5
176
     1
 44
0.0
176
     1
173
     0
176
     1
1001
ACAD
1000
AcDbSavedByObjectVersion
1070
     0
  0
VISUALSTYLE
  5
181
102
{ACAD_XDICTIONARY
360
1A02
102
}
102
{ACAD_REACTORS
330
99
102
}
330
99
100
AcDbVisualStyle
  2
Shaded with edges
 70
    26
177
     2
291
     0
 71
     2
176
     1
 72
     2
176
     1
 73
     1
176
     1
 90
        2
176
     1
 40
0.6
176
     1
 41
30.0
176
     1
 63
     7
421
 16777215
176
     1
 74
     1
176
     1
 91
        2
176
     1
 64
     7
176
     1
 65
   257
176
     1
 75
     2
176
     1
175
     1
176
     1
 42
1.0
176
     1
 92
        8
176
     1
 66
   257
176
     1
 43
1.0
176
     1
 76
     1
176
     1
 77
     6
176
     1
 78
     2
176
     1
 67
     7
176
     1
 79
     3
176
     1
170
     0
176
     1
171
     0
176
     1
290
     0
176
     1
 93
        5
176
     1
 44
0.0
176
     1
173
     0
176
     1
1001
ACAD
1000
AcDbSavedByObjectVersion
1070
     0
  0
VISUALSTYLE
  5
17E
102
{ACAD_XDICTIONARY
360
19FC
102
}
102
{ACAD_REACTORS
330
99
102
}
330
99
100
AcDbVisualStyle
  2
Shades of Gray
 70
    23
177
     2
291
     0
 71
     2
176
     1
 72
     2
176
     1
 73
     3
176
     1
 90
        0
176
     1
 40
0.6
176
     1
 41
30.0
176
     1
 63
     7
421
 16777215
176
     1
 74
     2
176
     1
 91
        2
176
     1
 64
     7
176
     1
 65
     7
176
     1
 75
     1
176
     1
175
     1
176
     1
 42
40.0
176
     1
 92
        8
176
     1
 66
     7
176
     1
 43
1.0
176
     1
 76
     1
176
     1
 77
     6
176
     1
 78
     2
176
     1
 67
     7
176
     1
 79
     3
176
     1
170
     0
176
     1
171
     0
176
     1
290
     0
176
     1
 93
        1
176
     1
 44
0.0
176
     1
173
     0
176
     1
1001
ACAD
1000
AcDbSavedByObjectVersion
1070
     0
  0
VISUALSTYLE
  5
17F
102
{ACAD_XDICTIONARY
360
19FE
102
}
102
{ACAD_REACTORS
330
99
102
}
330
99
100
AcDbVisualStyle
  2
Sketchy
 70
    24
177
     2
291
     0
 71
     1
176
     1
 72
     2
176
     1
 73
     2
176
     1
 90
        0
176
     1
 40
0.6
176
     1
 41
30.0
176
     1
 63
     7
421
 16777215
176
     1
 74
     2
176
     1
 91
        2
176
     1
 64
     7
176
     1
 65
     7
176
     1
 75
     1
176
     1
175
     1
176
     1
 42
40.0
176
     1
 92
       11
176
     1
 66
     7
176
     1
 43
1.0
176
     1
 76
     1
176
     1
 77
     6
176
     1
 78
     2
176
     1
 67
     7
176
     1
 79
     6
176
     1
170
     0
176
     1
171
     0
176
     1
290
     0
176
     1
 93
        1
176
     1
 44
0.0
176
     1
173
     0
176
     1
1001
ACAD
1000
AcDbSavedByObjectVersion
1070
     0
  0
VISUALSTYLE
  5
A6
102
{ACAD_XDICTIONARY
360
19EE
102
}
102
{ACAD_REACTORS
330
99
102
}
330
99
100
AcDbVisualStyle
  2
Thicken
 70
    13
177
     2
291
     1
 71
     2
176
     1
 72
     2
176
     1
 73
     1
176
     1
 90
        0
176
     1
 40
0.6
176
     1
 41
30.0
176
     1
 63
     7
421
 16777215
176
     1
 74
     1
176
     1
 91
        4
176
     1
 64
     7
176
     1
 65
   257
176
     1
 75
     1
176
     1
175
     1
176
     1
 42
1.0
176
     1
 92
       12
176
     1
 66
     7
176
     1
 43
1.0
176
     1
 76
     1
176
     1
 77
     6
176
     1
 78
     2
176
     1
 67
     7
176
     1
 79
     5
176
     1
170
     0
176
     1
171
     0
176
     1
290
     0
176
     1
 93
        1
176
     1
 44
0.0
176
     1
173
     0
176
     1
1001
ACAD
1000
AcDbSavedByObjectVersion
1070
     0
  0
VISUALSTYLE
  5
A0
102
{ACAD_XDICTIONARY
360
19E2
102
}
102
{ACAD_REACTORS
330
99
102
}
330
99
100
AcDbVisualStyle
  2
Wireframe
 70
     5
177
     2
291
     0
 71
     0
176
     1
 72
     2
176
     1
 73
     0
176
     1
 90
        0
176
     1
 40
0.6
176
     1
 41
30.0
176
     1
 63
     7
421
 16777215
176
     1
 74
     1
176
     1
 91
        4
176
     1
 64
     7
176
     1
 65
   257
176
     1
 75
     1
176
     1
175
     1
176
     1
 42
1.0
176
     1
 92
        0
176
     1
 66
   257
176
     1
 43
1.0
176
     1
 76
     1
176
     1
 77
     6
176
     1
 78
     2
176
     1
 67
     7
176
     1
 79
     3
176
     1
170
     0
176
     1
171
     0
176
     1
290
     0
176
     1
 93
        1
176
     1
 44
0.0
176
     1
173
     0
176
     1
1001
ACAD
1000
AcDbSavedByObjectVersion
1070
     0
  0
VISUALSTYLE
  5
180
102
{ACAD_XDICTIONARY
360
1A00
102
}
102
{ACAD_REACTORS
330
99
102
}
330
99
100
AcDbVisualStyle
  2
X-Ray
 70
    25
177
     2
291
     0
 71
     2
176
     1
 72
     2
176
     1
 73
     1
176
     1
 90
        1
176
     1
 40
0.5
176
     1
 41
30.0
176
     1
 63
     7
421
 16777215
176
     1
 74
     1
176
     1
 91
        0
176
     1
 64
     7
176
     1
 65
   257
176
     1
 75
     1
176
     1
175
     1
176
     1
 42
1.0
176
     1
 92
        8
176
     1
 66
     7
176
     1
 43
1.0
176
     1
 76
     1
176
     1
 77
     6
176
     1
 78
     2
176
     1
 67
     7
176
     1
 79
     3
176
     1
170
     0
176
     1
171
     0
176
     1
290
     0
176
     1
 93
       13
176
     1
 44
0.0
176
     1
173
     0
176
     1
1001
ACAD
1000
AcDbSavedByObjectVersion
1070
     0
  0
DICTIONARYVAR
  5
F0
102
{ACAD_REACTORS
330
66
102
}
330
66
100
DictionaryVariables
280
     0
  1
1:1
  0
DICTIONARYVAR
  5
EF
102
{ACAD_REACTORS
330
66
102
}
330
66
100
DictionaryVariables
280
     0
  1
STANDARD
  0
DICTIONARYVAR
  5
89
102
{ACAD_REACTORS
330
66
102
}
330
66
100
DictionaryVariables
280
     0
  1
STANDARD
  0
DICTIONARYVAR
  5
1B7
102
{ACAD_REACTORS
330
66
102
}
330
66
100
DictionaryVariables
280
     0
  1
Imperial24
  0
DICTIONARYVAR
  5
1B8
102
{ACAD_REACTORS
330
66
102
}
330
66
100
DictionaryVariables
280
     0
  1
Imperial24
  0
DICTIONARYVAR
  5
67
102
{ACAD_REACTORS
330
66
102
}
330
66
100
DictionaryVariables
280
     0
  1
2
  0
DICTIONARYVAR
  5
6B
102
{ACAD_REACTORS
330
66
102
}
330
66
100
DictionaryVariables
280
     0
  1
1
  0
DICTIONARYVAR
  5
14D
102
{ACAD_REACTORS
330
66
102
}
330
66
100
DictionaryVariables
280
     0
  1
0
  0
DICTIONARYVAR
  5
14E
102
{ACAD_REACTORS
330
66
102
}
330
66
100
DictionaryVariables
280
     0
  1
0
  0
DICTIONARYVAR
  5
537
102
{ACAD_REACTORS
330
66
102
}
330
66
100
DictionaryVariables
280
     0
  1
2
  0
DICTIONARYVAR
  5
536
102
{ACAD_REACTORS
330
66
102
}
330
66
100
DictionaryVariables
280
     0
  1
1
  0
DICTIONARY
  5
19D5
102
{ACAD_REACTORS
330
19D3
102
}
330
19D3
100
AcDbDictionary
281
     1
  0
DICTIONARY
  5
19D4
102
{ACAD_REACTORS
330
19D3
102
}
330
19D3
100
AcDbDictionary
281
     1
  3
2178988280160
350
19CE
  3
2178988280176
350
19CF
  3
2178988280192
350
19D0
  3
2178988280208
350
19D1
  3
2178988280224
350
19D2
  0
DICTIONARY
  5
19AC
330
1AC
100
AcDbDictionary
280
     1
281
     1
  3
ACAD_XREC_ROUNDTRIP
360
1A07
  0
DICTIONARY
  5
19B0
330
2FF
100
AcDbDictionary
280
     1
281
     1
  3
ACAD_XREC_ROUNDTRIP
360
1A09
  0
DICTIONARY
  5
194
330
22
100
AcDbDictionary
280
     1
281
     1
  0
DICTIONARY
  5
188
330
97
100
AcDbDictionary
280
     1
281
     1
  3
FBXASSET
360
189
  0
DICTIONARY
  5
186
330
96
100
AcDbDictionary
280
     1
281
     1
  3
FBXASSET
360
187
  0
DICTIONARY
  5
110
330
98
100
AcDbDictionary
280
     1
281
     1
  3
BUMPTILE
360
112
  3
DIFFUSETILE
360
111
  3
FBXASSET
360
18A
  3
OPACITYTILE
360
113
  3
REFLECTIONTILE
360
114
  0
DICTIONARY
  5
19AA
330
1AA
100
AcDbDictionary
280
     1
281
     1
  3
ACAD_XREC_ROUNDTRIP
360
1A06
  0
DICTIONARY
  5
19AE
330
2FE
100
AcDbDictionary
280
     1
281
     1
  3
ACAD_XREC_ROUNDTRIP
360
1A08
  0
DICTIONARY
  5
104
330
87
100
AcDbDictionary
280
     1
281
     1
  3
ACAD_ROUNDTRIP_2008_TABLESTYLE_CELLSTYLEMAP
360
19CC
  0
DICTIONARY
  5
19E0
330
9F
100
AcDbDictionary
280
     1
281
     1
  3
ACAD_XREC_ROUNDTRIP
360
19E1
  0
DICTIONARY
  5
19DE
330
9E
100
AcDbDictionary
280
     1
281
     1
  3
ACAD_XREC_ROUNDTRIP
360
19DF
  0
DICTIONARY
  5
19EC
330
A5
100
AcDbDictionary
280
     1
281
     1
  3
ACAD_XREC_ROUNDTRIP
360
19ED
  0
DICTIONARY
  5
19F4
330
A9
100
AcDbDictionary
280
     1
281
     1
  3
ACAD_XREC_ROUNDTRIP
360
19F5
  0
DICTIONARY
  5
19E6
330
A2
100
AcDbDictionary
280
     1
281
     1
  3
ACAD_XREC_ROUNDTRIP
360
19E7
  0
DICTIONARY
  5
19EA
330
A4
100
AcDbDictionary
280
     1
281
     1
  3
ACAD_XREC_ROUNDTRIP
360
19EB
  0
DICTIONARY
  5
19FA
330
175
100
AcDbDictionary
280
     1
281
     1
  3
ACAD_XREC_ROUNDTRIP
360
19FB
  0
DICTIONARY
  5
19F2
330
A8
100
AcDbDictionary
280
     1
281
     1
  3
ACAD_XREC_ROUNDTRIP
360
19F3
  0
DICTIONARY
  5
19D6
330
9A
100
AcDbDictionary
280
     1
281
     1
  3
ACAD_XREC_ROUNDTRIP
360
19D7
  0
DICTIONARY
  5
19D8
330
9B
100
AcDbDictionary
280
     1
281
     1
  3
ACAD_XREC_ROUNDTRIP
360
19D9
  0
DICTIONARY
  5
19DA
330
9C
100
AcDbDictionary
280
     1
281
     1
  3
ACAD_XREC_ROUNDTRIP
360
19DB
  0
DICTIONARY
  5
19DC
330
9D
100
AcDbDictionary
280
     1
281
     1
  3
ACAD_XREC_ROUNDTRIP
360
19DD
  0
DICTIONARY
  5
19E4
330
A1
100
AcDbDictionary
280
     1
281
     1
  3
ACAD_XREC_ROUNDTRIP
360
19E5
  0
DICTIONARY
  5
19F6
330
173
100
AcDbDictionary
280
     1
281
     1
  3
ACAD_XREC_ROUNDTRIP
360
19F7
  0
DICTIONARY
  5
19F0
330
A7
100
AcDbDictionary
280
     1
281
     1
  3
ACAD_XREC_ROUNDTRIP
360
19F1
  0
DICTIONARY
  5
19F8
330
174
100
AcDbDictionary
280
     1
281
     1
  3
ACAD_XREC_ROUNDTRIP
360
19F9
  0
DICTIONARY
  5
19E8
330
A3
100
AcDbDictionary
280
     1
281
     1
  3
ACAD_XREC_ROUNDTRIP
360
19E9
  0
DICTIONARY
  5
1A04
330
182
100
AcDbDictionary
280
     1
281
     1
  3
ACAD_XREC_ROUNDTRIP
360
1A05
  0
DICTIONARY
  5
1A02
330
181
100
AcDbDictionary
280
     1
281
     1
  3
ACAD_XREC_ROUNDTRIP
360
1A03
  0
DICTIONARY
  5
19FC
330
17E
100
AcDbDictionary
280
     1
281
     1
  3
ACAD_XREC_ROUNDTRIP
360
19FD
  0
DICTIONARY
  5
19FE
330
17F
100
AcDbDictionary
280
     1
281
     1
  3
ACAD_XREC_ROUNDTRIP
360
19FF
  0
DICTIONARY
  5
19EE
330
A6
100
AcDbDictionary
280
     1
281
     1
  3
ACAD_XREC_ROUNDTRIP
360
19EF
  0
DICTIONARY
  5
19E2
330
A0
100
AcDbDictionary
280
     1
281
     1
  3
ACAD_XREC_ROUNDTRIP
360
19E3
  0
DICTIONARY
  5
1A00
330
180
100
AcDbDictionary
280
     1
281
     1
  3
ACAD_XREC_ROUNDTRIP
360
1A01
  0
XRECORD
  5
19CE
102
{ACAD_REACTORS
330
19D4
102
}
330
19D4
100
AcDbXrecord
280
     1
  1
AcDb_Thumbnail_Schema
102
{ATTRRECORD
341
19CF
  2
AcDbDs::TreatedAsObjectData
280
     1
291
     1
102
ATTRRECORD}
102
{ATTRRECORD
341
19D0
  2
AcDbDs::Legacy
280
     1
291
     1
102
ATTRRECORD}
  2
AcDbDs::ID
280
    10
 91
        8
102
{ATTRRECORD
341
19D1
  2
AcDs:Indexable
280
     1
291
     1
102
ATTRRECORD}
102
{ATTRRECORD
341
19D2
  2
AcDbDs::HandleAttribute
280
     7
282
     1
102
ATTRRECORD}
  2
Thumbnail_Data
280
    15
 91
        0
  0
XRECORD
  5
19CF
102
{ACAD_REACTORS
330
19D4
102
}
330
19D4
100
AcDbXrecord
280
     1
  1
AcDbDs::TreatedAsObjectDataSchema
  2
AcDbDs::TreatedAsObjectData
280
     1
 91
        0
  0
XRECORD
  5
19D0
102
{ACAD_REACTORS
330
19D4
102
}
330
19D4
100
AcDbXrecord
280
     1
  1
AcDbDs::LegacySchema
  2
AcDbDs::Legacy
280
     1
 91
        0
  0
XRECORD
  5
19D1
102
{ACAD_REACTORS
330
19D4
102
}
330
19D4
100
AcDbXrecord
280
     1
  1
AcDbDs::IndexedPropertySchema
  2
AcDs:Indexable
280
     1
 91
        0
  0
XRECORD
  5
19D2
102
{ACAD_REACTORS
330
19D4
102
}
330
19D4
100
AcDbXrecord
280
     1
  1
AcDbDs::HandleAttributeSchema
  2
AcDbDs::HandleAttribute
280
     7
 91
        1
284
     1
  0
XRECORD
  5
1A07
102
{ACAD_REACTORS
330
19AC
102
}
330
19AC
100
AcDbXrecord
280
     1
102
DISPLAYNAME
  1
Imperial24
102
FLAGS
 90
        0
  0
XRECORD
  5
1A09
102
{ACAD_REACTORS
330
19B0
102
}
330
19B0
100
AcDbXrecord
280
     1
102
DISPLAYNAME
  1
Metric50
102
FLAGS
 90
        0
  0
XRECORD
  5
189
102
{ACAD_REACTORS
330
188
102
}
330
188
100
AcDbXrecord
280
     1
 70
     1
 90
429727718
  1
508B35C9-AEE7-456F-BE74-D52651303AC6
310
504B03040A0000080000B670623B3DEE336E79000000790000001B0000006175746F6465736B2D64657369676E2D7061636B6167652E786D6C3C3F786D6C2076657273696F6E3D22312E302220656E636F64696E673D227574662D3822203F3E3C666F726D6174733E3C666F726D61743E687474703A2F2F736368656D612E
310
6175746F6465736B2E636F6D2F64657369676E2D7061636B6167652F323030393C2F666F726D61743E3C2F666F726D6174733E504B0304140006080800B670623BD486FD9CA0000000F4000000130000005B436F6E74656E745F54797065735D2E786D6C7D8EC10E82300C865F65E91D8A1E8C310C0EEA1BF002731658846E
310
D98AC1B77784ABF1D8FE5FBFBF75BBCE937A534CCEB38643598122B6FEE978D0B0485F9C41B54DDD7D022595594E1A469170414C76A4D9A4D207E29CF43ECE46F218070CC6BECC4078ACAA135ACF422C856C0E68EA1BF5669944DDD7BCDE7B1F8E415D77AECB980613C2E4AC91FC167A2B244592486606FC29C8FD7F045B9A
310
EF7053A7E60B504B0304140006080800B670623B28ED286BEB0000007C01000008000000636F72652E786D6C8D90416EC3201045AF82665B6183218D6D61A254764FD00B204C5C94182C03558F5F9C3852BBEB6A467FFE9B197D71FA9E6FE8CBACC17AD7012D0820E3B41FAD9B3A48F1826B40272956EFE32F1B20A766D3C1
310
268314D3EAD3B24BDABB685CCCAAF3A3D94515828980F42D371D04FD696655A814B3235C8B45E9AB9A4C419F5D8653B2237A1CB163DE672FD6AC209BF3C08E0D1B30EB19C3FC9D72FCC6EB231EFA33EDE96BDD341517E5064B11EDFCBCAF57A3A2194156843498524CAA0FCA5B7268F9E185D42D21A2DCEC7FA0B48CFF8492
310
759155FBBB0F2C80A4F991FB408A72CB22977B50B96EB9C91F504B0304140006080800B670623B55019EA25F0000007C00000007000000636E782E786D6C4DCB3B0E80201045D1AD90E915ED2CF8AC45050C11660C8261F98AB1B07AC9C97D42D718D865D3E909258CFD00CCE24AC6E326A164D74DC0B4128928FF32603847
310
2BA13128B1252AC747C6BAB984FC68F0B87FE8960A5C09FE86CFB69FBA01504B0304140006080800B670623B7BC41AC871010000D40300000C0000006662782F636F72652E786D6CC553ED6E8320147D15C2DF4501B56B6D90A64BBB27D80B50A5CE54C120983EFEAE1F4DD7A56BBA5FF3879273EEE59E7310BE393735EA95
310
ED2AA333CC428A91D2B9292A5D66D8BB63B0C26823B835C67D2BC348CB46657880B1E0A535BE9DA1DC68A7B403549B42CDA0EC3AE530CA6B5864B8CB3F552343E91D5474A7B095F949962A6421D0502778E72C0840D390E18DC5F170E664C205F7BE2A66B62A605A75AC94C522DDEEE3651AEF837817C741F2CE92E02D592D
310
83FD6ECB76EC7595A651C2C9D02CB8AB9A8BBADC2AE954814544691A3016D0E883256BBA58278B17BA5A53CAC9507ED3E4DBE2C9265F691747B3DCA9ADC382819091F8E1162272A8933DE82182932144F88C09DF060D8140C84E1EEA8B8F1340BDCA9DB1093085F157AA97B557309586747CD0EF0B4EA64E983A6E0EAEEFCE
310
889E9EF17847386AA94B30211D2C0FDE0D3AF9A4610EAD5536E8DD1969631B593F67E381C33F5157F17725E5A636F6BF1491F980C8FC7B90E13E8A2F504B0304140006080800B670623B70102A487D0000009D0000000B0000006662782F636E782E786D6C4DCCD10A83201886E15B91FFDC95A5C30335ACCDFB886521330D
310
A76397BF1A1DECE883878F57749FD5A3B74D2F17830472A901D9F088930B8B849267CC01754AA418F3DF0D5018572BE160506249B16C274D761E8BCFBB7A179E27F65CB39A0F14D396184C9921B81F34C3ACA1B4B99ABB6E6F062A25AA5F69DF23ACBE504B0304140006080800B670623B3610CA3329010000120200003100
310
00006662782F42384135303843342D343331462D343546312D424341352D3532343432364645413344462F636F72652E786D6C8D515B6EC32010BC0AE22B55850D0E446E848992B43E412FE000495162B07854397EA176A4F62F3F2C9A9D991D58BEBB8F37F0AD7D30CE76905418026DA553C65E3A98E219B510EC04F7CEC5
310
3F3408EC30EA0E16180A7EF12E4D0B249D8DDAC68C5AA7F4020E21E80881BCE54B0783FCD2E3500D296646B856D320AFC34557A4CAEDCC133C449F0380794839A138B47B86DB2345744D7A44594FD0E1B867883594369BFE63BF7EEF793D0B054FC9A8456E548E63CE46FB674D8A58F068C6477CE9F510B582A2C1F80D1182
310
70F349E816B32D65AFB8DD62CCEB42FF274A937A52948C8DEB66893BCB021484D7734370E5D2E9F608A3EF93F3119479ABA0E50B14B8C298119A43CCC4FCFCECB8A18B6388CEE7EF5D5D4F994BD86CBBA182D76543B9FCAE2FD7B24DF103504B0304140006080800B670623B1B8617914E0100003303000030000000666278
310
2F42384135303843342D343331462D343546312D424341352D3532343432364645413344462F636E782E786D6CD593C16EC32010447F0571AD6CE3D489D20813A9877E410FBD62D82434182CC055F3F75D1292E692438FBD206B7698593D61BEFD1E2DF982108D773D6D6B460938E5B571FB9ECE6957AD29D90A1EBC4F7736
310
4A9C1CA1A759A682EF839FA72269D8C9D92654AD71C72206887E0E0A22CAF926B15E498B01E0AA19451807D01A34B919F16B070157417138917400F2F6FA41FCF0092A45DEE414C19BDC21783E4BD39D891265658C3D8DEA00A3ACE59CBC8678ACB54CB26EEB6BD7839D7E9348BE70AD9C8321B9BCA7F9A4A26C542347DEE0
310
50F09802D22BA6749A800A394DD62899107273365E3C82CFC6A55557BC06C10774B7ABE7AEC3B0F34CF06446280E154026D0542C187BA9DAB6628BF7B6DBB0E5A65B3EB1F58631DE64BBE083F7B65CC218087E22CABB042E51D1F2268F1FE12B3EA24D40D63E9CFE00120194D60B9D5BC67FE6D39CDF37E20AF817881F504B
310
0304140006080800B670623BBFEF2E3B690500003C100000340000006662782F42384135303843342D343331462D343546312D424341352D3532343432364645413344462F6F626A656374732E786D6CAD575D739B3814FD2B0CFB0C98D84E931D4227B6938EA793B6534F3BFB90198F0099B001899144EAECAFDF231018B0
310
D37A3FFC609090EEE7B94757C1FB7D915B2F54C88CB31BDB7727B64559CC938CA53776A576CE956DBD0F03C1B9EA2DB32D460A7A63EB693B0C52C1ABD24C257447AA5C8D66EF177F5832A68CDA569C13296F6C193FD182B8A4523CA1F2D94D88226EBADBBBBEDB2C1C8A4D05299F46424B222853B014F30C52ACC6287F389C
310
D85E1878FA7B18E87FB36AFAF62AAFF667A83F635211161F291B8999FAB3D5DDC5FCDA99CF6653677679E13B8BFBC5CAF1DF4D27CBCBE5F2FAF6EE1A8AA51290642C117467871F101B91C581D77CEA2C36869F3229E68CD1B8F61F1ED6361B89092D294B90C78C4A68EB793D190E7D1D9BDEE7A91E1B95FDE9F3BCEAEFE809
310
6A6D6F9F7D4B79F4275C90E7A04248AA51D5C4C738DAE06F72885AC4796EBE65D22A88A22223B995679120E2D50EB1542F098381188D4EA111AE3DB043FF20AF6F2B4AE3D7D83D65E5AECA730D4D3BAC91BD05FEA992B565D95F549CD6069B90AB2A63EACA38A45E4B6A87D781574F86817E4C2FCCC72690D62E2729520E37
310
9BAF234797BAF6D62B3BFC781FED37BA1E4F2B2F052FA9501A3E80569BB8F6A9A364D4FA67654E6F803383981F82F21591FF84F23D9882BC896C3FDBCF8C162508933B2E0AE4C69DD43F6BD2BE38DDDBF10BF86CB4FA784D37F3AF16075E67EC9030DECA1FC0A55373F5DFF3378C591FA9BDF485C10B0A8C8BA909E5262639
310
A8E72163488806A595734C81CB77D1DE0ED7604A303B76913CEC0272F412782FF88EFF4636D8AA56DF7B322474C4B767303F625997056C7B032C473C592B36CEBD15F3F9FF5233B7ABCDC74D257624A60F8658567497B14CE1EC3C80B76FD02011038F9EE9EB0F2E12387A9C844D3F09855125116D1D731DF8B43D2CF4E0A0
310
79A020C6BE946BCE0B7EA1E1219331CD73C228AF5A2DDD31A4B1DA918CE91350854D40A71723140BFA92E94E62B0626016CEFA5864A50E5977E8753CEDBEE1CBB7F52780D20E17AF0BA0F5F9B02A3AD07DCC732EB6D1EBB661421BE0C39E21BABF0FE16D22EA6929407C8DE596724C88B749B6DB5512BC7B228ADFD7CB7EA6
310
3A22397E690BA8D5D8D4E40CEC8CDA23C2C0B7D5898640101CEC9C6D331CE328CB93CAFBBAC70A642DF70DF95155945B52F08AA973C23469FD69ADEF84F7BB18F983A8F8C90E37F5D35980B2139A1C523540813E824EF83448CF7C72B598CE97D7CEEDDDDD3B6736BFBC771677EF66CE6A7E7139F7A793E9EDF2B2B3A8B624
310
0CDA13AA5F8388264EC4A0129909F3B7F5A16CEDF08128E97D680ACA4B9BE7B7B58BB638F0B00700EF36AE8B32A705658A68F83EE897FC2B41573190D1CCAF0B92D233A47CFEB019D9809933F67DD1A5467F8CF69AD9A5AE859342D45355448C64F968A371DC2D596ADC6E43D93D1B466F877A64E2893E54F23C4B40388995
310
525E5005DA3983ED45412510D3EFCA13737B3863F74BD30F2A12E5B4B5E489A025CE25500DB855B11ACE5BBFA185D35DD48D8DC3CE7DC69F2944DB42AA6F6CF09BCA622ADD08C7A36E7C6AE18000BAB08E040135C2D21C9D75B3A91B77BB746C403F38018DFE6EC939DD92F16B40BC05294B9CDA035AAD6D330AE27FE4786B
310
8E45145EA34A75BE1C263A676A35A8ACC6297337400BF16C54EF515F3F77CB77EB3583889C754FFA29081AA98E2222ADEF05DA3E63D2EDEA8B8756C05A7FB6CABC4A91CBF325398202CC952E70A008A830324BA200D5E5EF8F5F04C75DB4B0EE3340E071C98B823333B83577596BF3849B69F2085AA0FAFA212F26BEFF5877
310
FDE622B28D88A42E49E43326DA82D31E8CB006401E1DA726059ECEC168F97A6599036306A135688F9AD2E61A6EA178F4CD51974A9F2CCB9F36FE5EBD14601068D9C3BF01504B0304140006080000B670623B000000000000000000000000350000006662782F42384135303843342D343331462D343546312D424341352D35
310
32343432364645413344462F76657274696365732E62696E504B0304140006080800B670623BF270F1330600000004000000360000006662782F42384135303843342D343331462D343546312D424341352D3532343432364645413344462F747269616E676C65732E62696E636660600000504B0304140006080000B67062
310
3B000000000000000000000000370000006662782F42384135303843342D343331462D343546312D424341352D3532343432364645413344462F617474726962757465732E62696E504B0304140006080800B670623B08DA0BD19000000041010000360000006662782F42384135303843342D343331462D343546312D4243
310
41352D3532343432364645413344462F6469726563746F72792E786D6C858F410AC3201045AF22B36F53E9A60B35CBEEBAE80D244E44489C6234F4F835464A48035D0DF398FF9F8AF63D0E6CC63039F212F8F9020C7D47C6792B21C5FE7403D62A1188E2E60C98D7234A5830286103A55745067B9D86B8A3CF9C7F90C11DE6
310
07FB144396D7B6A82D282E9A152AD114D5EF2CB866EEE831B8EEA07A7BB5A8D7D61A2BAAEB7FD5F70921FF497D00504B0304140006080800B670623B3B4606F3FE000000A00100003B0000006662782F42384135303843342D343331462D343546312D424341352D3532343432364645413344462F7265736F75726365732F
310
636F72652E786D6C8D504B6E833010BD0A9A6D65B08134808CA354A427E8052C332156828DFCA97AFC9A40A576D7CDCCE87D344F8F9FBEE647F689CE6B6B7A6039850C8DB2A336530F315C4903D94970676DF82583CCC8197B5861107C72362E3BA4AC096842428D1D7107A5F71820538F74F4E0D50D6799CB1892C2DFF345
310
AABB9C306779A2934E701F5C0A906D4FD609C2A1B7D129F4BCD858C163D4E3AED163FAA9AF1A1D88F67CA98E6D35906AA82A52BFB39ABCD5CD915C86331BD86BD3B665CD8BD52C78D0F34F46E550061C419494B6843142CB0F5677F4D0D58717DA7494F26295FF31C565FCA7296A13AA728FBBD93C0896823C09C18BB5AFB4
310
9E65A6BD762BBE01504B010214000A0000080000B670623B3DEE336E79000000790000001B00000000000000000000000000000000006175746F6465736B2D64657369676E2D7061636B6167652E786D6C504B01021400140006080800B670623BD486FD9CA0000000F40000001300000000000000000000000000B2000000
310
5B436F6E74656E745F54797065735D2E786D6C504B01021400140006080800B670623B28ED286BEB0000007C010000080000000000000000000000000083010000636F72652E786D6C504B01021400140006080800B670623B55019EA25F0000007C000000070000000000000000000000000094020000636E782E786D6C50
310
4B01021400140006080800B670623B7BC41AC871010000D40300000C00000000000000000000000000180300006662782F636F72652E786D6C504B01021400140006080800B670623B70102A487D0000009D0000000B00000000000000000000000000B30400006662782F636E782E786D6C504B01021400140006080800B6
310
70623B3610CA3329010000120200003100000000000000000000000000590500006662782F42384135303843342D343331462D343546312D424341352D3532343432364645413344462F636F72652E786D6C504B01021400140006080800B670623B1B8617914E010000330300003000000000000000000000000000D10600
310
006662782F42384135303843342D343331462D343546312D424341352D3532343432364645413344462F636E782E786D6C504B01021400140006080800B670623BBFEF2E3B690500003C10000034000000000000000000000000006D0800006662782F42384135303843342D343331462D343546312D424341352D35323434
310
32364645413344462F6F626A656374732E786D6C504B01021400140006080000B670623B0000000000000000000000003500000000000000000000000000280E00006662782F42384135303843342D343331462D343546312D424341352D3532343432364645413344462F76657274696365732E62696E504B010214001400
310
06080800B670623BF270F133060000000400000036000000000000000000000000007B0E00006662782F42384135303843342D343331462D343546312D424341352D3532343432364645413344462F747269616E676C65732E62696E504B01021400140006080000B670623B00000000000000000000000037000000000000
310
00000000000000D50E00006662782F42384135303843342D343331462D343546312D424341352D3532343432364645413344462F617474726962757465732E62696E504B01021400140006080800B670623B08DA0BD1900000004101000036000000000000000000000000002A0F00006662782F42384135303843342D3433
310
31462D343546312D424341352D3532343432364645413344462F6469726563746F72792E786D6C504B01021400140006080800B670623B3B4606F3FE000000A00100003B000000000000000000000000000E1000006662782F42384135303843342D343331462D343546312D424341352D3532343432364645413344462F72
310
65736F75726365732F636F72652E786D6C504B0506000000000E000E0080040000651100000000
  0
XRECORD
  5
187
102
{ACAD_REACTORS
330
186
102
}
330
186
100
AcDbXrecord
280
     1
 70
     1
 90
429727718
  1
887D55A9-D0DD-414E-B741-A7DCD4DA2B4C
310
504B03040A0000080000B670623B3DEE336E79000000790000001B0000006175746F6465736B2D64657369676E2D7061636B6167652E786D6C3C3F786D6C2076657273696F6E3D22312E302220656E636F64696E673D227574662D3822203F3E3C666F726D6174733E3C666F726D61743E687474703A2F2F736368656D612E
310
6175746F6465736B2E636F6D2F64657369676E2D7061636B6167652F323030393C2F666F726D61743E3C2F666F726D6174733E504B0304140006080800B670623BD486FD9CA0000000F4000000130000005B436F6E74656E745F54797065735D2E786D6C7D8EC10E82300C865F65E91D8A1E8C310C0EEA1BF002731658846E
310
D98AC1B77784ABF1D8FE5FBFBF75BBCE937A534CCEB38643598122B6FEE978D0B0485F9C41B54DDD7D022595594E1A469170414C76A4D9A4D207E29CF43ECE46F218070CC6BECC4078ACAA135ACF422C856C0E68EA1BF5669944DDD7BCDE7B1F8E415D77AECB980613C2E4AC91FC167A2B244592486606FC29C8FD7F045B9A
310
EF7053A7E60B504B0304140006080800B670623BBC1638F5EC0000007C01000008000000636F72652E786D6C8D90416EC3201045AF82665B61836BE2D8C24471DB9CA01740401C94182C03558F5F9C3852BBEB6A467FFE9B197D7EF89E6EE8CB2CC17AD7032D0820E394D7D68D3DA478C67B4007C117EFE32F1B202727D3C3
310
2A83E0E3E2D3BC49CABB685CCCAAF3DA6CA20CC14440EA969B1E82BA98491632C5EC08D76296EA2A4753D06797E194AC468F2356E77DF66CCD02825543D50CACC62D39ED70FDC68EB8FD68F6F8787A6784342D1DDA1D2F5758F068A7E77DB518198D065111D2624A31A93E69DD11D6D5EC85EC3B4278B9DAFF4069D6FF8492
310
75F1B5DADE7D600104CD8FDC0782976B16B9DC83CA75CD4DFC00504B0304140006080800B670623B55019EA25F0000007C00000007000000636E782E786D6C4DCB3B0E80201045D1AD90E915ED2CF8AC45050C11660C8261F98AB1B07AC9C97D42D718D865D3E909258CFD00CCE24AC6E326A164D74DC0B4128928FF326038
310
472BA13128B1252AC747C6BAB984FC68F0B87FE8960A5C09FE86CFB69FBA01504B0304140006080800B670623B3586FFB671010000D40300000C0000006662782F636F72652E786D6CC553ED6E8320147D15C2DF4541A76D6D90A6DDD627D80B50A4CE54C120983EFEAE1F4DD7A55BBA5FF3879273EEE59E7310B6393735EA
310
95ED2AA3731C851423A5A5292A5DE6D8BB63B0C268C39935C67D29C3488B46E578803167A535BE9D2169B453DA01AA4DA16650749D7218C91A1639EEE4876A4428BC838AEE14B6429E44A9C228041AEA38EB9C0501681A32BC313F1ECE8C4C3867DE57C5CC56054CAB8E95B298A7F12E5EEED224C8E87E11242FE936C8DE96
310
AB60BB7F4D295D66D12E5B30323473E6AAE6A24E5A259C2A308F29CD82280A68FC1E256B9AAE93F489AED694323294DF34F9B678B0C957DA3DC7B3DCA9ADC33C022123F1CD2D44E450277AD04338234388F01913BE0D1A0281909D38D4171F27807A259DB1093085F157AA17B557309586747CD0CF0B46A64E983A6E0EAEEF
310
CE881F9EF1FB8E70D44297604238581EBC1B74B249C31C5AAB6CD0BB33D2C636A27ECCC62F0EFF445DC5DF95244D6DEC7F2922F30191F9F720C37DE49F504B0304140006080800B670623B4220A0FF7D0000009D0000000B0000006662782F636E782E786D6C4DCCD10A83201886E15B91FFDCE542CB0335D0EC3E6259C84A
310
C3E9D8E5AF46073BFAE0E1E315DD675BD1DBA5978F41C2FD4600B9F088930F8B849267CC01754AA418F3DF0D50183727E164506249B1EC174D6E1ECB9A0F5D7D785E68DB8151CD286E5A5363CA6B8A39E90D36D40E96B086F55A43A544F52B1D7B86D517504B0304140006080800B670623B2FA3FEDE290100001202000031
310
0000006662782F45374635344235342D363743322D343832342D383044432D4334454645303536354442422F636F72652E786D6C8D515B6EC32010BC0AE22B55850D2E386E848994D7097A0117488A1283C5A3CAF10BB523B57FF961D1ECCCECC0F2ED7DBC816FED8371B687A4C210682B9D32F6D2C314CFA883602BB8772E
310
FEA141608751F7B0C050F08B77695A20E96CD43666D43AA5177008414708E42D5F7A18E4971E876A483133C2B59A06791D2EBA22556E679EE021FA1C00CC43CA09C5717D6274C7286AD7FB06D1AEA1A8C3873DDAD3E3E98859CB0EBB1DAF67A1E02919B5C88DCA71CCD968FFAC49110B1ECDF8882FBD1EA256503418BF2342
310
106E3E08DD60B6A1EC15771B8C795DE8FF4469524F8A92B1F1AD59E2CEB20005E1F5DC105CB9F4797B84D1F7C9F908CABC55D0F2050A5C61CC1AD2F27A26E6E767C7962E8E213A9FBF7775FDCC5CC266DB960A5E970DE5F2BBBE5CCB36C50F504B0304140006080800B670623B1B8617914E01000033030000300000006662
310
782F45374635344235342D363743322D343832342D383044432D4334454645303536354442422F636E782E786D6CD593C16EC32010447F0571AD6CE3D489D20813A9877E410FBD62D82434182CC055F3F75D1292E692438FBD206B7698593D61BEFD1E2DF982108D773D6D6B460938E5B571FB9ECE6957AD29D90A1EBC4F77
310
364A9C1CA1A759A682EF839FA72269D8C9D92654AD71C72206887E0E0A22CAF926B15E498B01E0AA19451807D01A34B919F16B070157417138917400F2F6FA41FCF0092A45DEE414C19BDC21783E4BD39D891265658C3D8DEA00A3ACE59CBC8678ACB54CB26EEB6BD7839D7E9348BE70AD9C8321B9BCA7F9A4A26C542347DE
310
E050F09802D22BA6749A800A394DD62899107273365E3C82CFC6A55557BC06C10774B7ABE7AEC3B0F34CF06446280E154026D0542C187BA9DAB6628BF7B6DBB0E5A65B3EB1F58631DE64BBE083F7B65CC218087E22CABB042E51D1F2268F1FE12B3EA24D40D63E9CFE00120194D60B9D5BC67FE6D39CDF37E20AF817881F50
310
4B0304140006080800B670623B29652116630500003C100000340000006662782F45374635344235342D363743322D343832342D383044432D4334454645303536354442422F6F626A656374732E786D6CAD575D739B3814FD2B0CFB0C989834C90EA1639B24E3E9A6EDD4D3CE3E64C623834CD8006224913AFDF57B040203
310
B65BEF871F0C12D2FD3CF7E8CA7FBFCB33E3957291B2E2D674ED8969D02262715A24B76625B7D6B569BC0F7CCE98EC2D338D82E4F4D654D366E0279C55A59E8AE99654991CCDDECFFF3444440B6A1A514684B83545F44C7362934AB2988A173B2692D8C97667BB76B3702836E1A47C1E092D09A78584A5982F20C5688C7287
310
C389E904BEA3BE07BEFAD7ABA6A75739B53F43FD69212429A20365233153D70BEF2E2E6FAC4BCF9B5ADEBB0BD79ADFCF43CBBD9A4E16EF168B9BD9DD0D140BC921495BC2E9D60C1E101B9E46BED37CEA2CD6861F3329624541A3DA7F7858DBAC25C6B4A4458C3CA654405BCFEBC970E8AAD8F43E4FD558ABEC4F9FE7557F47
310
4F506B7BFBEC5BCA367FC105710E2AB8A00A554D7CB4A30DFE26FBA86D18CBF4B75418399194A72433B274C3097F33032C554B027F2046A1932B842B0FCCC0DDCBEBDB8AD2F835768F59B9ADB24C41D30C6A64AF817F2A456D59FA83F2E3DA60137255A585BCD60EC9B7929AC18DEFD49381AF1ED30BFDB109A4B1CD488294
310
C3CDE6EBC8D185AABD6568061FEE37BB95AAC7E3CA4BCE4ACAA5820FA0D526AE7DAA2869B5EE5999531BE0CC20E6FBA07C41E43FA27CF7A6206F3CDD793B4F6B919C1462CB788EDCD893FA674CDA17AB7B3B7C019F8D561FAEE966FED562DFE98C1D12C6A9FC015C2A35D7FF3D7FC398F591DA4B5FE0BFA2C0189FEA50AE22
310
92817A1ED3020951A03432862970F976B33383259812CC8E5D240BBA801CBCF8CE2BBEE3BF910DB6AAD5F79E05123AE2DB33981FB1ACCB02B69D00CB014FD68AB573A7627EF9BFD4CC2C5C7D58557C4B22FAA88925A4DBB44825CECE3D78FB060D1231F0E885BE7D673C86A3874958F593906B5502D1563157814FDAC3420D
310
F69A070A22EC4B98E23CFF171A1E5311D12C23056555ABA53B8614563B92D17D02AAB009E8F46284624E5F53D5490C560CCCC2591FF1B45421EB0EBD8EA7ED13BE7C5D7E0428CD60FEF60779EB13E6664FF711CB185F6FDED60D139A001FF60CD1FD6D086F1D51474901E26B2CB794A343BC8ED3EDB612E0DD2351FCB65CF4
310
33D511C9E14B5B40ADC6A6263DB0336A8F700DDF56271A024E70B0B3629DE21847591E55DED73D56206AB927E46FAABC5C939C55853C274C93D69FD6FA4E78BF8B11DF898C9ECD60553FAD39283BA6F18984AA23E8884F83F45C5F5F859797B31B2B9C84A1E5B9DE9D35BFF25C6B76152E422F9C5DCC3D847F5801ED09D5AF
310
41441327A25FF15487F9EB725FB666F048A4701E9A827292E6F97569A32DF61DEC01C0BB8DCBBCCC684E0B49147C1FD54BF685A0AB18C868E6973949E819523E3DAC463660E68C7D9F55A9D1EFA3BD7A76A16AE1A810F95CE59B82A4D968A376DC2E8B44BBDD86B27B368CDE0ED548C7137DA860591A83706223A12CA712B4
310
7306DBF39C0A20A6DF95C7FAF670C6EED7A61F946493D1D6926782963813403548A78AE470DEF80D2D9CEAA26E4D1C76F60BFE74219A06527D6B82DF641A51616F703CAAC6A7160E08A00BEB4810A0274592A1B36E3675E36E978A0DE80727A0D6DF2D39A75BD27E0D8837276589537B40ABB56D5A41F48F1C6FCD3188C4EB
310
A6929D2FFB89CE995A4D00AE813BDD032DC48B56BD437DFDDC2DD7AED70C2272D63DE9A72068A45A92F0A4BE17A8A06B9366E16707AD80B1FC649459952097E74BB23805982B55E0401150A165964402AA8BDF9F3E7386BB686EDCA780C0D382E5392BF460A6EFB2C6EA1937D3F809B440D5F5435C4C5CF7A9EEFAF54564BD
310
2182DA24162F98680B4E7930C21A0079709CEAEB99A372305ABE0C0D7D6078105A83F6A0296DAEE1068A47DD1C55A9F4C9B2FC69E3EFD44B81028E963DF81B504B0304140006080000B670623B000000000000000000000000350000006662782F45374635344235342D363743322D343832342D383044432D433445464530
310
3536354442422F76657274696365732E62696E504B0304140006080800B670623BF270F1330600000004000000360000006662782F45374635344235342D363743322D343832342D383044432D4334454645303536354442422F747269616E676C65732E62696E636660600000504B0304140006080000B670623B00000000
310
0000000000000000370000006662782F45374635344235342D363743322D343832342D383044432D4334454645303536354442422F617474726962757465732E62696E504B0304140006080800B670623B08DA0BD19000000041010000360000006662782F45374635344235342D363743322D343832342D383044432D4334
310
454645303536354442422F6469726563746F72792E786D6C858F410AC3201045AF22B36F53E9A60B35CBEEBAE80D244E44489C6234F4F835464A48035D0DF398FF9F8AF63D0E6CC63039F212F8F9020C7D47C6792B21C5FE7403D62A1188E2E60C98D7234A5830286103A55745067B9D86B8A3CF9C7F90C11DE607FB144396
310
D7B6A82D282E9A152AD114D5EF2CB866EEE831B8EEA07A7BB5A8D7D61A2BAAEB7FD5F70921FF497D00504B0304140006080800B670623B6378F24DFF000000A00100003B0000006662782F45374635344235342D363743322D343832342D383044432D4334454645303536354442422F7265736F75726365732F636F72652E
310
786D6C8D504B6E833010BD0A9A6D65B0094E42641C85B639412F6099496225D8C89FAAC7AF09546A77DDCC8CDE47F3F4C4F16B7C149FE88371B603565228D06A37187BED20C50BD9437194C23B177FC9A0B06AC40E6618A4B87A97A615D2CE46B431A3D60DB8822A048C50E8473E3A08FA86A32A558A5911EEE5A4F45D5DB1
310
6465A6B34E8A107D0E502C4FE609D26370C96B0CA25A58295232C3AA3143FE692E063D485EF7F5AEE71BD2D2F39634AFFC44DAF7DD9E9CCE6F9CD25DCBFA762BAAD92C4534E34F46ED51451C40D694B6843142EB0FD61C283F34FC85EE0F948A6A96FF31A569F8A729191B37F51A77B105902C0779125254735F793DCBCC7B
310
EE567E03504B010214000A0000080000B670623B3DEE336E79000000790000001B00000000000000000000000000000000006175746F6465736B2D64657369676E2D7061636B6167652E786D6C504B01021400140006080800B670623BD486FD9CA0000000F40000001300000000000000000000000000B20000005B436F6E
310
74656E745F54797065735D2E786D6C504B01021400140006080800B670623BBC1638F5EC0000007C010000080000000000000000000000000083010000636F72652E786D6C504B01021400140006080800B670623B55019EA25F0000007C000000070000000000000000000000000095020000636E782E786D6C504B010214
310
00140006080800B670623B3586FFB671010000D40300000C00000000000000000000000000190300006662782F636F72652E786D6C504B01021400140006080800B670623B4220A0FF7D0000009D0000000B00000000000000000000000000B40400006662782F636E782E786D6C504B01021400140006080800B670623B2F
310
A3FEDE290100001202000031000000000000000000000000005A0500006662782F45374635344235342D363743322D343832342D383044432D4334454645303536354442422F636F72652E786D6C504B01021400140006080800B670623B1B8617914E010000330300003000000000000000000000000000D2060000666278
310
2F45374635344235342D363743322D343832342D383044432D4334454645303536354442422F636E782E786D6C504B01021400140006080800B670623B29652116630500003C10000034000000000000000000000000006E0800006662782F45374635344235342D363743322D343832342D383044432D4334454645303536
310
354442422F6F626A656374732E786D6C504B01021400140006080000B670623B0000000000000000000000003500000000000000000000000000230E00006662782F45374635344235342D363743322D343832342D383044432D4334454645303536354442422F76657274696365732E62696E504B01021400140006080800
310
B670623BF270F13306000000040000003600000000000000000000000000760E00006662782F45374635344235342D363743322D343832342D383044432D4334454645303536354442422F747269616E676C65732E62696E504B01021400140006080000B670623B0000000000000000000000003700000000000000000000
310
000000D00E00006662782F45374635344235342D363743322D343832342D383044432D4334454645303536354442422F617474726962757465732E62696E504B01021400140006080800B670623B08DA0BD190000000410100003600000000000000000000000000250F00006662782F45374635344235342D363743322D34
310
3832342D383044432D4334454645303536354442422F6469726563746F72792E786D6C504B01021400140006080800B670623B6378F24DFF000000A00100003B00000000000000000000000000091000006662782F45374635344235342D363743322D343832342D383044432D4334454645303536354442422F7265736F75
310
726365732F636F72652E786D6C504B0506000000000E000E0080040000611100000000
  0
XRECORD
  5
112
102
{ACAD_REACTORS
330
110
102
}
330
110
100
AcDbXrecord
280
     1
270
     1
271
     1
  0
XRECORD
  5
111
102
{ACAD_REACTORS
330
110
102
}
330
110
100
AcDbXrecord
280
     1
270
     1
271
     1
  0
XRECORD
  5
18A
102
{ACAD_REACTORS
330
110
102
}
330
110
100
AcDbXrecord
280
     1
 70
     0
 90
1778669749
  1
9BF507EE-FAF7-4A99-A33D-4EE51894BC40
310
504B03040A0000080000B670623B3DEE336E79000000790000001B0000006175746F6465736B2D64657369676E2D7061636B6167652E786D6C3C3F786D6C2076657273696F6E3D22312E302220656E636F64696E673D227574662D3822203F3E3C666F726D6174733E3C666F726D61743E687474703A2F2F736368656D612E
310
6175746F6465736B2E636F6D2F64657369676E2D7061636B6167652F323030393C2F666F726D61743E3C2F666F726D6174733E504B0304140006080800B670623BD486FD9CA0000000F4000000130000005B436F6E74656E745F54797065735D2E786D6C7D8EC10E82300C865F65E91D8A1E8C310C0EEA1BF002731658846E
310
D98AC1B77784ABF1D8FE5FBFBF75BBCE937A534CCEB38643598122B6FEE978D0B0485F9C41B54DDD7D022595594E1A469170414C76A4D9A4D207E29CF43ECE46F218070CC6BECC4078ACAA135ACF422C856C0E68EA1BF5669944DDD7BCDE7B1F8E415D77AECB980613C2E4AC91FC167A2B244592486606FC29C8FD7F045B9A
310
EF7053A7E60B504B0304140006080800B670623BCA089DFFEC0000007C01000008000000636F72652E786D6C8D90416E83301045AF62CDB632D8402020E32882F604BD80653BC44AB011B6AB1EBF262152BBEB6A467FFE9B197D76FA9EEFE84BAFDE38DB03CD08206DA553C64E3DC470C1474027CE56E7C22F1B202B66DDC3
310
260367D3EAE2B24BD2D9A06D48AA754AEFA2F05E0740F29E9A1EBCBCEA59642286E4F0B76C11F226269DD15797E0188D42CF2346A57DE662F40ABCAEC77628C6120F654571D50C04B7F5B9C1E3997CD4F550BE3745C3F20DE62C98F9755FAE5A04AD801784B498524C8A4F5A75E4D055873772EC0861F966FF03C545FD138A
310
C686B2D8DF7D621E384D8F3C069CE55B16A93C824A75CB8DFF00504B0304140006080800B670623B55019EA25F0000007C00000007000000636E782E786D6C4DCB3B0E80201045D1AD90E915ED2CF8AC45050C11660C8261F98AB1B07AC9C97D42D718D865D3E909258CFD00CCE24AC6E326A164D74DC0B4128928FF326038
310
472BA13128B1252AC747C6BAB984FC68F0B87FE8960A5C09FE86CFB69FBA01504B0304140006080800B670623B68FC0B7272010000D40300000C0000006662782F636F72652E786D6CC5535B6E833010BC8AE5DF0A6C1E8124328E22D29EA01770C0A128602363A31CBFCB234A53A555FA553EC09AD9F5CE8C31DB5DDA060D
310
D2F4B556190E7C8A9154852E6B5565D8D993B7C668C799D1DA7E29C3488956667884316795D1AE5BA0422B2B950554E9522EA0E87B69312A1A5864B82F3E642B7CE12C54F467BF13C55954D20F7CA0A18EB3DE1A1080E621E31BF3D3F1C2C88C73E65C5D2E6C5DC2B4FA544B8379921C36797888BC3C8A032F4E73EA6D927D
310
EA1DF6F42D49F2E8350D5346C666CE6CDD5ED515460A2B4BCC434A375E1078347C0FE22D5D6DE3D50B5D6F2965642CBF6B725DF96493AB958DC245EEDCD6631E809089F8E61622B2A81703E8219C913144F84C09DF070D8140C8561C9BAB8F3340832CAC363130A576376A108D933095FA747AD0CF0B46E64E983A6D0EAE1F
310
CE089F9EF1FB8E70D44255604258581E9D1D75B259C3125A278D37D80B52DAB4A279CEC62F0EFF44DDC43F9454E8469BFF5244960322CBEF41C6FBC83F01504B0304140006080800B670623B0F71DDB67E0000009D0000000B0000006662782F636E782E786D6C4DCCD10A83201886E15B91FFDCA54DB73F502386BB8F5816
310
32D3703976F9ABD1C18E3E78F87855FB990379BBFCF2296AE02706C4C5471A7C9C349475A408A4352AA7B4FEDD80C47E761A7606A3A69CCA72D0E0C6BE8475D3E0E3F3409428EA6B27A84079A782899AA2EC1A7AE3ECCC2FD858CB2D544655BFD2B67BD87C01504B0304140006080800B670623BE134B4FB28010000120200
310
00310000006662782F38353834323741342D343835462D343034322D383541392D4331303331363839454531452F636F72652E786D6C8D515B6EC32010BC0AE22B55850D0EA424C24451959EA0172086A42831583CAA1CBF503B52FB971F16CDCECC0EACD8DFC71BF836215AEF7A481A0C817183D7D65D7A98D3197108F652
310
04EFD31F1A044E8DA6871586525C82CFD3020DDE25E352419DD76601558C264130DCCAA58771F832A36A544E8511AFCDA486ABBA988634A55D7852C4144A00300FA927949C71DABD1D28A29C7D208A6987383B6CD13BC16BB2E1DBE3911C453B0BA5C8D9EA456E758963CFD684674DAA588A64C747FC2118958C86B2C3788B
310
0841B8FB247487D98EB257CC77188BB6D2FF89F2A49F1465EBD2BA5BE2CEB2082511EDDC9042FB7CBA3DC298FBE4430275DE2A9AE1054ADC60CC08E3A29D89E5F9C5714317C7987C28DFBBBA9E0A97B0D97643A568EB864AF95D5FA9759BF207504B0304140006080800B670623B1B8617914E010000330300003000000066
310
62782F38353834323741342D343835462D343034322D383541392D4331303331363839454531452F636E782E786D6CD593C16EC32010447F0571AD6CE3D489D20813A9877E410FBD62D82434182CC055F3F75D1292E692438FBD206B7698593D61BEFD1E2DF982108D773D6D6B460938E5B571FB9ECE6957AD29D90A1EBC4F
310
77364A9C1CA1A759A682EF839FA72269D8C9D92654AD71C72206887E0E0A22CAF926B15E498B01E0AA19451807D01A34B919F16B070157417138917400F2F6FA41FCF0092A45DEE414C19BDC21783E4BD39D891265658C3D8DEA00A3ACE59CBC8678ACB54CB26EEB6BD7839D7E9348BE70AD9C8321B9BCA7F9A4A26C542347
310
DEE050F09802D22BA6749A800A394DD62899107273365E3C82CFC6A55557BC06C10774B7ABE7AEC3B0F34CF06446280E154026D0542C187BA9DAB6628BF7B6DBB0E5A65B3EB1F58631DE64BBE083F7B65CC218087E22CABB042E51D1F2268F1FE12B3EA24D40D63E9CFE00120194D60B9D5BC67FE6D39CDF37E20AF817881F
310
504B0304140006080800B670623B5933D422630500003B100000340000006662782F38353834323741342D343835462D343034322D383541392D4331303331363839454531452F6F626A656374732E786D6CAD575B6FA33814FE2B887D0642934E9B156594264D158D3A534DD4D13E548A0C38942D60649B4EBABF7E3F8321
310
40924EF6928780CDF1B97EE762EFF32E4B8D37CA45C2F21BD3B547A641F39045491EDF98A5DC5AD7A6F1D9F73863B243661A39C9E88DA9B64DDF8B392B0BBD15D12D295339D85DDEFE618890E6D434C2940871638AF08566C426A5641115AF764424B1E3EDCE76ED9AB0CF36E6A47819302D08A7B984A6D8CFC1C5A89572FB
310
CB91E9F89EA3BEFB9EFAD754E3D3544E654F5F7E920B49F2F040D880CDD89D2CEE2E2EA7D6E56432B6269F2E5CEB7679BBB0DCABF168FE693E9FCEEEA6102C240727AD09A75BD3BF876F78127A4EFDA9D5582B7E4CA590E5390D2BFB6161A5B3E618D182E611E2985001691DAB47FDA5AB7CD3F93C566B2DB2BB7D9E55DD13
310
1D468DEECDB3AB290BFE8409E21C54704115AA6AFF68436BFC8DF65E0B184BF5B74418199194272435D224E084BF9B3E481589EFF5D828747285706581E9BB7B7E5D5D911ABFC6EE312DB7659A2A689A7E85EC0DF04FA5A8344BFEA2FCB834E8845895492EAFB541F2BDA0A63FF59C6AD3F7D4637CA13FD68E34B629891172
310
98597F1D183A57B9B75A98FE9765B05BAB7C3C2EBCE0ACA05C2AF8005A4DE09AA7F29216EB9E15397500C6F47CBE77CA7778FE2BD277AF0AE2C693DD6437D1522427B9D8329E2136F6A8FA19A3E6C56ADF0E5F50CF06D48734EDCEBF22F69C56D97EC138153F804B85E6FABFC7AFEFB32E523BE1F3BD372418E363EDCA7548
310
52949E8724474014288D94610BB57C1BEC4C7F854A89CA8E5324F55B871CBC78CE1BBEE3BFE68D6A5589EF3C730474506FCFA8FCF0659516D0ED04580EEA6425581B77CAE797FF4BCECC16EB2FEB926F49481F746159D06D922712BD730FDEAE42BD40F42C7AA5EF3F198F60E86110D6DD20645A9480B795CF95E3E3A659A8
310
C55E724F408873315335CFFB8584874484344D494E59D94869DB90C26A5B64F49C802CAC1D3ABE18A098D3B7444D123D8A9E5AE8F5214F0AE5B2B6E9B575DA3E61CBD3EA2B4009FA940524DD1305FB6A1FB294F14DF0BEA90BA109ECE1481FDC3FFAE8D60E75141700BE82725371B4873751B2DD960265F788137FACE6DD40
310
B575E4F0A5C99F46629D92131467A41EE11ABD8D4CCC039CA0AFB37C93A08B232B8F0AEFCA1E0A1015DF13FC83322B362463652ECF71D3A8B1A7D1BE65DE1D62C44F22C317D35F574FEB16153BA2D13E543D10A80E74C4A65E78A6B7CBCBD1D5DD9DB59C2DAFACC96C3AB566E3F1C29ADCDD5DBAD7D3C9ED7C822ED74F80A6
310
41755310DE4443F44A9E68373FADF6596BFA0F440AE7BECE2727AE9F4F2B1B53B1E7E00CF0DD1E5C65454A339A4BA2D0FBA05ED2EF0443458F47BDBFCA484CCFE0F2ED7E3DD0013B679C7B5499467F0ECEEADDB9CA85A34CE44B99053949D2C1416DB85DE4B136BB7165FBAC0B7AB3542BED4F8CA182A549847A1319316519
310
95A83A67147B9E5101C47487F2485F1ECE38FD568F839204296D3479219888530154036E6528FBFBC66F98E0D4107563A2D7D9AFF8D389681A08F58D89F22693900A3B407754734FC51C10C010D6D640809EE4718AC1BA3ED4AEDB53CA37283F68805A7E4B72CEB0A4EDEAD5DD8C14059A76AFAA56BA6901E13F32BC51C720
310
12AF41295B5BF61BAD3195181FB506E6B40F4C10AF5AF40EF9F5B159AE5DD1F43C72D635E94310D45C2D49785C5D0B94D3B54AB3C5A38349C0587D338AB48C11CBF339599C02CCA54A70A008A8D03C0B2201D5F9EFCF8F9CE12A9A19CB0410789EB32C63B95ECCF455D658BFE0621A3DA32C5075FB101723D77DAE867E7D0F
310
D90444509B44E2151B4DC2290B065803200FBAA9BE9D392A0603F2D5C2D00D6302A615680F66D2FA166E2079D4C551A54AB758161FCEFD4E450A14704CECFEDF504B0304140006080000B670623B000000000000000000000000350000006662782F38353834323741342D343835462D343034322D383541392D4331303331
310
363839454531452F76657274696365732E62696E504B0304140006080800B670623BF270F1330600000004000000360000006662782F38353834323741342D343835462D343034322D383541392D4331303331363839454531452F747269616E676C65732E62696E636660600000504B0304140006080000B670623B000000
310
000000000000000000370000006662782F38353834323741342D343835462D343034322D383541392D4331303331363839454531452F617474726962757465732E62696E504B0304140006080800B670623B08DA0BD19000000041010000360000006662782F38353834323741342D343835462D343034322D383541392D43
310
31303331363839454531452F6469726563746F72792E786D6C858F410AC3201045AF22B36F53E9A60B35CBEEBAE80D244E44489C6234F4F835464A48035D0DF398FF9F8AF63D0E6CC63039F212F8F9020C7D47C6792B21C5FE7403D62A1188E2E60C98D7234A5830286103A55745067B9D86B8A3CF9C7F90C11DE607FB1443
310
96D7B6A82D282E9A152AD114D5EF2CB866EEE831B8EEA07A7BB5A8D7D61A2BAAEB7FD5F70921FF497D00504B0304140006080800B670623BD9A3B367FE000000A00100003B0000006662782F38353834323741342D343835462D343034322D383541392D4331303331363839454531452F7265736F75726365732F636F7265
310
2E786D6C8D504B6E833010BD0A9A6D65B01D0201194711694FD00B586642AD043BF2A7EAF16B122AB5BB6E6646EFA3797AE2F8B5DC8A4FF4C1383B002B291468B59B8C9D0748F1420E501CA5F0CEC55F3228AC5A708015062966EFD27D83B4B3116DCCA875136EA00A012314FA968F0182FEC045952AC5AC08D7F2AEF455CD
310
58B232D3592745883E07289E4FD609D26370C96B0CA27AB252A464A64D63A6FCD35C0C7A904D73EE467EE664DCD58CD4ED4849D79C5A723ED1B7A61977AF2D6F45B59AA58866F9C9A83DAA8813484E6947182394BFB3BAA7FBBEDEBFD0434FA9A856F91F53BA4FFF342563E38E6F719FB60092E5200F428A6AED2BAF479979
310
AFDDCA6F504B010214000A0000080000B670623B3DEE336E79000000790000001B00000000000000000000000000000000006175746F6465736B2D64657369676E2D7061636B6167652E786D6C504B01021400140006080800B670623BD486FD9CA0000000F40000001300000000000000000000000000B20000005B436F6E
310
74656E745F54797065735D2E786D6C504B01021400140006080800B670623BCA089DFFEC0000007C010000080000000000000000000000000083010000636F72652E786D6C504B01021400140006080800B670623B55019EA25F0000007C000000070000000000000000000000000095020000636E782E786D6C504B010214
310
00140006080800B670623B68FC0B7272010000D40300000C00000000000000000000000000190300006662782F636F72652E786D6C504B01021400140006080800B670623B0F71DDB67E0000009D0000000B00000000000000000000000000B50400006662782F636E782E786D6C504B01021400140006080800B670623BE1
310
34B4FB280100001202000031000000000000000000000000005C0500006662782F38353834323741342D343835462D343034322D383541392D4331303331363839454531452F636F72652E786D6C504B01021400140006080800B670623B1B8617914E010000330300003000000000000000000000000000D3060000666278
310
2F38353834323741342D343835462D343034322D383541392D4331303331363839454531452F636E782E786D6C504B01021400140006080800B670623B5933D422630500003B10000034000000000000000000000000006F0800006662782F38353834323741342D343835462D343034322D383541392D4331303331363839
310
454531452F6F626A656374732E786D6C504B01021400140006080000B670623B0000000000000000000000003500000000000000000000000000240E00006662782F38353834323741342D343835462D343034322D383541392D4331303331363839454531452F76657274696365732E62696E504B01021400140006080800
310
B670623BF270F13306000000040000003600000000000000000000000000770E00006662782F38353834323741342D343835462D343034322D383541392D4331303331363839454531452F747269616E676C65732E62696E504B01021400140006080000B670623B0000000000000000000000003700000000000000000000
310
000000D10E00006662782F38353834323741342D343835462D343034322D383541392D4331303331363839454531452F617474726962757465732E62696E504B01021400140006080800B670623B08DA0BD190000000410100003600000000000000000000000000260F00006662782F38353834323741342D343835462D34
310
3034322D383541392D4331303331363839454531452F6469726563746F72792E786D6C504B01021400140006080800B670623BD9A3B367FE000000A00100003B000000000000000000000000000A1000006662782F38353834323741342D343835462D343034322D383541392D4331303331363839454531452F7265736F75
310
726365732F636F72652E786D6C504B0506000000000E000E0080040000611100000000
  0
XRECORD
  5
113
102
{ACAD_REACTORS
330
110
102
}
330
110
100
AcDbXrecord
280
     1
270
     1
271
     1
  0
XRECORD
  5
114
102
{ACAD_REACTORS
330
110
102
}
330
110
100
AcDbXrecord
280
     1
270
     1
271
     1
  0
XRECORD
  5
1A06
102
{ACAD_REACTORS
330
19AA
102
}
330
19AA
100
AcDbXrecord
280
     1
102
DISPLAYNAME
  1
Imperial24
102
FLAGS
 90
        0
  0
XRECORD
  5
1A08
102
{ACAD_REACTORS
330
19AE
102
}
330
19AE
100
AcDbXrecord
280
     1
102
DISPLAYNAME
  1
Metric50
102
FLAGS
 90
        0
  0
CELLSTYLEMAP
  5
19CC
102
{ACAD_REACTORS
330
104
102
}
330
104
100
AcDbCellStyleMap
 90
        3
300
CELLSTYLE
  1
TABLEFORMAT_BEGIN
 90
        5
170
     1
 91
        0
 92
    32768
 62
   257
 93
        1
300
CONTENTFORMAT
  1
CONTENTFORMAT_BEGIN
 90
        0
 91
        0
 92
      512
 93
        0
300

 40
0.0
140
1.0
 94
        5
 62
     0
340
11
144
0.25
309
CONTENTFORMAT_END
171
     1
301
MARGIN
  1
CELLMARGIN_BEGIN
 40
0.06
 40
0.06
 40
0.06
 40
0.06
 40
0.18
 40
0.18
309
CELLMARGIN_END
 94
        6
 95
        1
302
GRIDFORMAT
  1
GRIDFORMAT_BEGIN
 90
        0
 91
        1
 62
     0
 92
       -2
340
0
 93
        0
 40
0.045
309
GRIDFORMAT_END
 95
        2
302
GRIDFORMAT
  1
GRIDFORMAT_BEGIN
 90
        0
 91
        1
 62
     0
 92
       -2
340
0
 93
        0
 40
0.045
309
GRIDFORMAT_END
 95
        4
302
GRIDFORMAT
  1
GRIDFORMAT_BEGIN
 90
        0
 91
        1
 62
     0
 92
       -2
340
0
 93
        0
 40
0.045
309
GRIDFORMAT_END
 95
        8
302
GRIDFORMAT
  1
GRIDFORMAT_BEGIN
 90
        0
 91
        1
 62
     0
 92
       -2
340
0
 93
        0
 40
0.045
309
GRIDFORMAT_END
 95
       16
302
GRIDFORMAT
  1
GRIDFORMAT_BEGIN
 90
        0
 91
        1
 62
     0
 92
       -2
340
0
 93
        0
 40
0.045
309
GRIDFORMAT_END
 95
       32
302
GRIDFORMAT
  1
GRIDFORMAT_BEGIN
 90
        0
 91
        1
 62
     0
 92
       -2
340
0
 93
        0
 40
0.045
309
GRIDFORMAT_END
309
TABLEFORMAT_END
  1
CELLSTYLE_BEGIN
 90
        1
 91
        1
300
_TITLE
309
CELLSTYLE_END
300
CELLSTYLE
  1
TABLEFORMAT_BEGIN
 90
        5
170
     1
 91
        0
 92
        0
 62
   257
 93
        1
300
CONTENTFORMAT
  1
CONTENTFORMAT_BEGIN
 90
        0
 91
        0
 92
      512
 93
        0
300

 40
0.0
140
1.0
 94
        5
 62
     0
340
11
144
0.18
309
CONTENTFORMAT_END
171
     1
301
MARGIN
  1
CELLMARGIN_BEGIN
 40
0.06
 40
0.06
 40
0.06
 40
0.06
 40
0.18
 40
0.18
309
CELLMARGIN_END
 94
        6
 95
        1
302
GRIDFORMAT
  1
GRIDFORMAT_BEGIN
 90
        0
 91
        1
 62
     0
 92
       -2
340
0
 93
        0
 40
0.045
309
GRIDFORMAT_END
 95
        2
302
GRIDFORMAT
  1
GRIDFORMAT_BEGIN
 90
        0
 91
        1
 62
     0
 92
       -2
340
0
 93
        0
 40
0.045
309
GRIDFORMAT_END
 95
        4
302
GRIDFORMAT
  1
GRIDFORMAT_BEGIN
 90
        0
 91
        1
 62
     0
 92
       -2
340
0
 93
        0
 40
0.045
309
GRIDFORMAT_END
 95
        8
302
GRIDFORMAT
  1
GRIDFORMAT_BEGIN
 90
        0
 91
        1
 62
     0
 92
       -2
340
0
 93
        0
 40
0.045
309
GRIDFORMAT_END
 95
       16
302
GRIDFORMAT
  1
GRIDFORMAT_BEGIN
 90
        0
 91
        1
 62
     0
 92
       -2
340
0
 93
        0
 40
0.045
309
GRIDFORMAT_END
 95
       32
302
GRIDFORMAT
  1
GRIDFORMAT_BEGIN
 90
        0
 91
        1
 62
     0
 92
       -2
340
0
 93
        0
 40
0.045
309
GRIDFORMAT_END
309
TABLEFORMAT_END
  1
CELLSTYLE_BEGIN
 90
        2
 91
        1
300
_HEADER
309
CELLSTYLE_END
300
CELLSTYLE
  1
TABLEFORMAT_BEGIN
 90
        5
170
     1
 91
        0
 92
        0
 62
   257
 93
        1
300
CONTENTFORMAT
  1
CONTENTFORMAT_BEGIN
 90
        0
 91
        0
 92
      512
 93
        0
300

 40
0.0
140
1.0
 94
        2
 62
     0
340
11
144
0.18
309
CONTENTFORMAT_END
171
     1
301
MARGIN
  1
CELLMARGIN_BEGIN
 40
0.06
 40
0.06
 40
0.06
 40
0.06
 40
0.18
 40
0.18
309
CELLMARGIN_END
 94
        6
 95
        1
302
GRIDFORMAT
  1
GRIDFORMAT_BEGIN
 90
        0
 91
        1
 62
     0
 92
       -2
340
0
 93
        0
 40
0.045
309
GRIDFORMAT_END
 95
        2
302
GRIDFORMAT
  1
GRIDFORMAT_BEGIN
 90
        0
 91
        1
 62
     0
 92
       -2
340
0
 93
        0
 40
0.045
309
GRIDFORMAT_END
 95
        4
302
GRIDFORMAT
  1
GRIDFORMAT_BEGIN
 90
        0
 91
        1
 62
     0
 92
       -2
340
0
 93
        0
 40
0.045
309
GRIDFORMAT_END
 95
        8
302
GRIDFORMAT
  1
GRIDFORMAT_BEGIN
 90
        0
 91
        1
 62
     0
 92
       -2
340
0
 93
        0
 40
0.045
309
GRIDFORMAT_END
 95
       16
302
GRIDFORMAT
  1
GRIDFORMAT_BEGIN
 90
        0
 91
        1
 62
     0
 92
       -2
340
0
 93
        0
 40
0.045
309
GRIDFORMAT_END
 95
       32
302
GRIDFORMAT
  1
GRIDFORMAT_BEGIN
 90
        0
 91
        1
 62
     0
 92
       -2
340
0
 93
        0
 40
0.045
309
GRIDFORMAT_END
309
TABLEFORMAT_END
  1
CELLSTYLE_BEGIN
 90
        3
 91
        2
300
_DATA
309
CELLSTYLE_END
  0
XRECORD
  5
19E1
102
{ACAD_REACTORS
330
19E0
102
}
330
19E0
100
AcDbXrecord
280
     1
102
RTVSPost2010Prop28
280
     1
102
RTVSPost2010PropOp28
 70
     1
102
RTVSPost2010Prop29
280
     1
102
RTVSPost2010PropOp29
 70
     1
102
RTVSPost2010Prop30
280
     0
102
RTVSPost2010PropOp30
 70
     1
102
RTVSPost2010Prop31
280
     0
102
RTVSPost2010PropOp31
 70
     1
102
RTVSPost2010Prop32
280
     0
102
RTVSPost2010PropOp32
 70
     1
102
RTVSPost2010Prop33
280
     0
102
RTVSPost2010PropOp33
 70
     1
102
RTVSPost2010Prop34
280
     0
102
RTVSPost2010PropOp34
 70
     1
102
RTVSPost2010Prop35
280
     0
102
RTVSPost2010PropOp35
 70
     1
102
RTVSPost2010Prop36
280
     0
102
RTVSPost2010PropOp36
 70
     1
102
RTVSPost2010Prop37
 90
       50
102
RTVSPost2010PropOp37
 70
     1
102
RTVSPost2010Prop38
140
0.0
102
RTVSPost2010PropOp38
 70
     1
102
RTVSPost2010Prop39
140
1.0
102
RTVSPost2010PropOp39
 70
     1
102
RTVSPost2010Prop40
 90
        0
102
RTVSPost2010PropOp40
 70
     1
102
RTVSPost2010Prop41ColorIndex
 90
       18
102
RTVSPost2010Prop41ColorRGB
 90
        0
102
RTVSPost2010PropOp41
 70
     1
102
RTVSPost2010Prop42
 90
       50
102
RTVSPost2010PropOp42
 70
     1
102
RTVSPost2010Prop43
 90
        3
102
RTVSPost2010PropOp43
 70
     1
102
RTVSPost2010Prop44ColorIndex
 90
        5
102
RTVSPost2010Prop44ColorRGB
 90
      255
102
RTVSPost2010PropOp44
 70
     1
102
RTVSPost2010Prop45
280
     0
102
RTVSPost2010PropOp45
 70
     1
102
RTVSPost2010Prop46
 90
       50
102
RTVSPost2010PropOp46
 70
     1
102
RTVSPost2010Prop47
 90
       50
102
RTVSPost2010PropOp47
 70
     1
102
RTVSPost2010Prop48
 90
       50
102
RTVSPost2010PropOp48
 70
     1
102
RTVSPost2010Prop49
280
     0
102
RTVSPost2010PropOp49
 70
     1
102
RTVSPost2010Prop50
 90
       50
102
RTVSPost2010PropOp50
 70
     1
102
RTVSPost2010Prop51ColorIndex
 90
      256
102
RTVSPost2010Prop51ColorRGB
 90
-16777216
102
RTVSPost2010PropOp51
 70
     0
102
RTVSPost2010Prop52
140
1.0
102
RTVSPost2010PropOp52
 70
     0
102
RTVSPost2010Prop53
 90
        2
102
RTVSPost2010PropOp53
 70
     1
102
RTVSPost2010Prop54
  1
strokes_ogs.tif
102
RTVSPost2010PropOp54
 70
     1
102
RTVSPost2010Prop55
280
     0
102
RTVSPost2010PropOp55
 70
     1
102
RTVSPost2010Prop56
140
1.0
102
RTVSPost2010PropOp56
 70
     1
102
RTVSPost2010Prop57
140
1.0
102
RTVSPost2010PropOp57
 70
     1
  0
XRECORD
  5
19DF
102
{ACAD_REACTORS
330
19DE
102
}
330
19DE
100
AcDbXrecord
280
     1
102
RTVSPost2010Prop28
280
     0
102
RTVSPost2010PropOp28
 70
     1
102
RTVSPost2010Prop29
280
     1
102
RTVSPost2010PropOp29
 70
     1
102
RTVSPost2010Prop30
280
     1
102
RTVSPost2010PropOp30
 70
     1
102
RTVSPost2010Prop31
280
     0
102
RTVSPost2010PropOp31
 70
     1
102
RTVSPost2010Prop32
280
     0
102
RTVSPost2010PropOp32
 70
     1
102
RTVSPost2010Prop33
280
     0
102
RTVSPost2010PropOp33
 70
     1
102
RTVSPost2010Prop34
280
     0
102
RTVSPost2010PropOp34
 70
     1
102
RTVSPost2010Prop35
280
     0
102
RTVSPost2010PropOp35
 70
     1
102
RTVSPost2010Prop36
280
     0
102
RTVSPost2010PropOp36
 70
     1
102
RTVSPost2010Prop37
 90
       50
102
RTVSPost2010PropOp37
 70
     1
102
RTVSPost2010Prop38
140
0.0
102
RTVSPost2010PropOp38
 70
     1
102
RTVSPost2010Prop39
140
1.0
102
RTVSPost2010PropOp39
 70
     1
102
RTVSPost2010Prop40
 90
        0
102
RTVSPost2010PropOp40
 70
     1
102
RTVSPost2010Prop41ColorIndex
 90
       18
102
RTVSPost2010Prop41ColorRGB
 90
        0
102
RTVSPost2010PropOp41
 70
     1
102
RTVSPost2010Prop42
 90
       50
102
RTVSPost2010PropOp42
 70
     1
102
RTVSPost2010Prop43
 90
        3
102
RTVSPost2010PropOp43
 70
     1
102
RTVSPost2010Prop44ColorIndex
 90
        5
102
RTVSPost2010Prop44ColorRGB
 90
      255
102
RTVSPost2010PropOp44
 70
     1
102
RTVSPost2010Prop45
280
     0
102
RTVSPost2010PropOp45
 70
     1
102
RTVSPost2010Prop46
 90
       50
102
RTVSPost2010PropOp46
 70
     1
102
RTVSPost2010Prop47
 90
       50
102
RTVSPost2010PropOp47
 70
     1
102
RTVSPost2010Prop48
 90
       50
102
RTVSPost2010PropOp48
 70
     1
102
RTVSPost2010Prop49
280
     0
102
RTVSPost2010PropOp49
 70
     1
102
RTVSPost2010Prop50
 90
       50
102
RTVSPost2010PropOp50
 70
     1
102
RTVSPost2010Prop51ColorIndex
 90
      256
102
RTVSPost2010Prop51ColorRGB
 90
-16777216
102
RTVSPost2010PropOp51
 70
     0
102
RTVSPost2010Prop52
140
1.0
102
RTVSPost2010PropOp52
 70
     0
102
RTVSPost2010Prop53
 90
        2
102
RTVSPost2010PropOp53
 70
     1
102
RTVSPost2010Prop54
  1
strokes_ogs.tif
102
RTVSPost2010PropOp54
 70
     1
102
RTVSPost2010Prop55
280
     0
102
RTVSPost2010PropOp55
 70
     1
102
RTVSPost2010Prop56
140
1.0
102
RTVSPost2010PropOp56
 70
     1
102
RTVSPost2010Prop57
140
1.0
102
RTVSPost2010PropOp57
 70
     1
  0
XRECORD
  5
19ED
102
{ACAD_REACTORS
330
19EC
102
}
330
19EC
100
AcDbXrecord
280
     1
102
RTVSPost2010Prop28
280
     0
102
RTVSPost2010PropOp28
 70
     1
102
RTVSPost2010Prop29
280
     1
102
RTVSPost2010PropOp29
 70
     1
102
RTVSPost2010Prop30
280
     1
102
RTVSPost2010PropOp30
 70
     1
102
RTVSPost2010Prop31
280
     0
102
RTVSPost2010PropOp31
 70
     1
102
RTVSPost2010Prop32
280
     0
102
RTVSPost2010PropOp32
 70
     1
102
RTVSPost2010Prop33
280
     0
102
RTVSPost2010PropOp33
 70
     1
102
RTVSPost2010Prop34
280
     0
102
RTVSPost2010PropOp34
 70
     1
102
RTVSPost2010Prop35
280
     0
102
RTVSPost2010PropOp35
 70
     1
102
RTVSPost2010Prop36
280
     0
102
RTVSPost2010PropOp36
 70
     1
102
RTVSPost2010Prop37
 90
       50
102
RTVSPost2010PropOp37
 70
     1
102
RTVSPost2010Prop38
140
0.0
102
RTVSPost2010PropOp38
 70
     1
102
RTVSPost2010Prop39
140
1.0
102
RTVSPost2010PropOp39
 70
     1
102
RTVSPost2010Prop40
 90
        0
102
RTVSPost2010PropOp40
 70
     1
102
RTVSPost2010Prop41ColorIndex
 90
       18
102
RTVSPost2010Prop41ColorRGB
 90
        0
102
RTVSPost2010PropOp41
 70
     1
102
RTVSPost2010Prop42
 90
       50
102
RTVSPost2010PropOp42
 70
     1
102
RTVSPost2010Prop43
 90
        3
102
RTVSPost2010PropOp43
 70
     1
102
RTVSPost2010Prop44ColorIndex
 90
        5
102
RTVSPost2010Prop44ColorRGB
 90
      255
102
RTVSPost2010PropOp44
 70
     1
102
RTVSPost2010Prop45
280
     0
102
RTVSPost2010PropOp45
 70
     1
102
RTVSPost2010Prop46
 90
       50
102
RTVSPost2010PropOp46
 70
     1
102
RTVSPost2010Prop47
 90
       50
102
RTVSPost2010PropOp47
 70
     1
102
RTVSPost2010Prop48
 90
       50
102
RTVSPost2010PropOp48
 70
     1
102
RTVSPost2010Prop49
280
     0
102
RTVSPost2010PropOp49
 70
     1
102
RTVSPost2010Prop50
 90
       50
102
RTVSPost2010PropOp50
 70
     1
102
RTVSPost2010Prop51ColorIndex
 90
      256
102
RTVSPost2010Prop51ColorRGB
 90
-16777216
102
RTVSPost2010PropOp51
 70
     0
102
RTVSPost2010Prop52
140
1.0
102
RTVSPost2010PropOp52
 70
     0
102
RTVSPost2010Prop53
 90
        2
102
RTVSPost2010PropOp53
 70
     1
102
RTVSPost2010Prop54
  1
strokes_ogs.tif
102
RTVSPost2010PropOp54
 70
     1
102
RTVSPost2010Prop55
280
     0
102
RTVSPost2010PropOp55
 70
     1
102
RTVSPost2010Prop56
140
1.0
102
RTVSPost2010PropOp56
 70
     1
102
RTVSPost2010Prop57
140
1.0
102
RTVSPost2010PropOp57
 70
     1
  0
XRECORD
  5
19F5
102
{ACAD_REACTORS
330
19F4
102
}
330
19F4
100
AcDbXrecord
280
     1
102
RTVSPost2010Prop28
280
     0
102
RTVSPost2010PropOp28
 70
     1
102
RTVSPost2010Prop29
280
     1
102
RTVSPost2010PropOp29
 70
     1
102
RTVSPost2010Prop30
280
     1
102
RTVSPost2010PropOp30
 70
     1
102
RTVSPost2010Prop31
280
     0
102
RTVSPost2010PropOp31
 70
     1
102
RTVSPost2010Prop32
280
     0
102
RTVSPost2010PropOp32
 70
     1
102
RTVSPost2010Prop33
280
     0
102
RTVSPost2010PropOp33
 70
     1
102
RTVSPost2010Prop34
280
     0
102
RTVSPost2010PropOp34
 70
     1
102
RTVSPost2010Prop35
280
     0
102
RTVSPost2010PropOp35
 70
     1
102
RTVSPost2010Prop36
280
     0
102
RTVSPost2010PropOp36
 70
     1
102
RTVSPost2010Prop37
 90
       50
102
RTVSPost2010PropOp37
 70
     1
102
RTVSPost2010Prop38
140
0.0
102
RTVSPost2010PropOp38
 70
     1
102
RTVSPost2010Prop39
140
1.0
102
RTVSPost2010PropOp39
 70
     1
102
RTVSPost2010Prop40
 90
        0
102
RTVSPost2010PropOp40
 70
     1
102
RTVSPost2010Prop41ColorIndex
 90
       18
102
RTVSPost2010Prop41ColorRGB
 90
        0
102
RTVSPost2010PropOp41
 70
     1
102
RTVSPost2010Prop42
 90
       50
102
RTVSPost2010PropOp42
 70
     1
102
RTVSPost2010Prop43
 90
        3
102
RTVSPost2010PropOp43
 70
     1
102
RTVSPost2010Prop44ColorIndex
 90
        5
102
RTVSPost2010Prop44ColorRGB
 90
      255
102
RTVSPost2010PropOp44
 70
     1
102
RTVSPost2010Prop45
280
     0
102
RTVSPost2010PropOp45
 70
     1
102
RTVSPost2010Prop46
 90
       50
102
RTVSPost2010PropOp46
 70
     1
102
RTVSPost2010Prop47
 90
       50
102
RTVSPost2010PropOp47
 70
     1
102
RTVSPost2010Prop48
 90
       50
102
RTVSPost2010PropOp48
 70
     1
102
RTVSPost2010Prop49
280
     0
102
RTVSPost2010PropOp49
 70
     1
102
RTVSPost2010Prop50
 90
       50
102
RTVSPost2010PropOp50
 70
     1
102
RTVSPost2010Prop51ColorIndex
 90
      256
102
RTVSPost2010Prop51ColorRGB
 90
-16777216
102
RTVSPost2010PropOp51
 70
     0
102
RTVSPost2010Prop52
140
1.0
102
RTVSPost2010PropOp52
 70
     0
102
RTVSPost2010Prop53
 90
        2
102
RTVSPost2010PropOp53
 70
     1
102
RTVSPost2010Prop54
  1
strokes_ogs.tif
102
RTVSPost2010PropOp54
 70
     1
102
RTVSPost2010Prop55
280
     0
102
RTVSPost2010PropOp55
 70
     1
102
RTVSPost2010Prop56
140
1.0
102
RTVSPost2010PropOp56
 70
     1
102
RTVSPost2010Prop57
140
1.0
102
RTVSPost2010PropOp57
 70
     1
  0
XRECORD
  5
19E7
102
{ACAD_REACTORS
330
19E6
102
}
330
19E6
100
AcDbXrecord
280
     1
102
RTVSPost2010Prop28
280
     0
102
RTVSPost2010PropOp28
 70
     1
102
RTVSPost2010Prop29
280
     1
102
RTVSPost2010PropOp29
 70
     1
102
RTVSPost2010Prop30
280
     1
102
RTVSPost2010PropOp30
 70
     1
102
RTVSPost2010Prop31
280
     0
102
RTVSPost2010PropOp31
 70
     1
102
RTVSPost2010Prop32
280
     0
102
RTVSPost2010PropOp32
 70
     1
102
RTVSPost2010Prop33
280
     0
102
RTVSPost2010PropOp33
 70
     1
102
RTVSPost2010Prop34
280
     0
102
RTVSPost2010PropOp34
 70
     1
102
RTVSPost2010Prop35
280
     0
102
RTVSPost2010PropOp35
 70
     1
102
RTVSPost2010Prop36
280
     0
102
RTVSPost2010PropOp36
 70
     1
102
RTVSPost2010Prop37
 90
       50
102
RTVSPost2010PropOp37
 70
     1
102
RTVSPost2010Prop38
140
0.0
102
RTVSPost2010PropOp38
 70
     1
102
RTVSPost2010Prop39
140
1.0
102
RTVSPost2010PropOp39
 70
     1
102
RTVSPost2010Prop40
 90
        0
102
RTVSPost2010PropOp40
 70
     1
102
RTVSPost2010Prop41ColorIndex
 90
       18
102
RTVSPost2010Prop41ColorRGB
 90
        0
102
RTVSPost2010PropOp41
 70
     1
102
RTVSPost2010Prop42
 90
       50
102
RTVSPost2010PropOp42
 70
     1
102
RTVSPost2010Prop43
 90
        3
102
RTVSPost2010PropOp43
 70
     1
102
RTVSPost2010Prop44ColorIndex
 90
        5
102
RTVSPost2010Prop44ColorRGB
 90
      255
102
RTVSPost2010PropOp44
 70
     1
102
RTVSPost2010Prop45
280
     0
102
RTVSPost2010PropOp45
 70
     1
102
RTVSPost2010Prop46
 90
       50
102
RTVSPost2010PropOp46
 70
     1
102
RTVSPost2010Prop47
 90
       50
102
RTVSPost2010PropOp47
 70
     1
102
RTVSPost2010Prop48
 90
       50
102
RTVSPost2010PropOp48
 70
     1
102
RTVSPost2010Prop49
280
     0
102
RTVSPost2010PropOp49
 70
     1
102
RTVSPost2010Prop50
 90
       50
102
RTVSPost2010PropOp50
 70
     1
102
RTVSPost2010Prop51ColorIndex
 90
      256
102
RTVSPost2010Prop51ColorRGB
 90
-16777216
102
RTVSPost2010PropOp51
 70
     0
102
RTVSPost2010Prop52
140
1.0
102
RTVSPost2010PropOp52
 70
     0
102
RTVSPost2010Prop53
 90
        2
102
RTVSPost2010PropOp53
 70
     1
102
RTVSPost2010Prop54
  1
strokes_ogs.tif
102
RTVSPost2010PropOp54
 70
     1
102
RTVSPost2010Prop55
280
     0
102
RTVSPost2010PropOp55
 70
     1
102
RTVSPost2010Prop56
140
1.0
102
RTVSPost2010PropOp56
 70
     1
102
RTVSPost2010Prop57
140
1.0
102
RTVSPost2010PropOp57
 70
     1
  0
XRECORD
  5
19EB
102
{ACAD_REACTORS
330
19EA
102
}
330
19EA
100
AcDbXrecord
280
     1
102
RTVSPost2010Prop28
280
     0
102
RTVSPost2010PropOp28
 70
     1
102
RTVSPost2010Prop29
280
     1
102
RTVSPost2010PropOp29
 70
     1
102
RTVSPost2010Prop30
280
     1
102
RTVSPost2010PropOp30
 70
     1
102
RTVSPost2010Prop31
280
     0
102
RTVSPost2010PropOp31
 70
     1
102
RTVSPost2010Prop32
280
     0
102
RTVSPost2010PropOp32
 70
     1
102
RTVSPost2010Prop33
280
     0
102
RTVSPost2010PropOp33
 70
     1
102
RTVSPost2010Prop34
280
     0
102
RTVSPost2010PropOp34
 70
     1
102
RTVSPost2010Prop35
280
     0
102
RTVSPost2010PropOp35
 70
     1
102
RTVSPost2010Prop36
280
     0
102
RTVSPost2010PropOp36
 70
     1
102
RTVSPost2010Prop37
 90
       50
102
RTVSPost2010PropOp37
 70
     1
102
RTVSPost2010Prop38
140
0.0
102
RTVSPost2010PropOp38
 70
     1
102
RTVSPost2010Prop39
140
1.0
102
RTVSPost2010PropOp39
 70
     1
102
RTVSPost2010Prop40
 90
        0
102
RTVSPost2010PropOp40
 70
     1
102
RTVSPost2010Prop41ColorIndex
 90
       18
102
RTVSPost2010Prop41ColorRGB
 90
        0
102
RTVSPost2010PropOp41
 70
     1
102
RTVSPost2010Prop42
 90
       50
102
RTVSPost2010PropOp42
 70
     1
102
RTVSPost2010Prop43
 90
        3
102
RTVSPost2010PropOp43
 70
     1
102
RTVSPost2010Prop44ColorIndex
 90
        5
102
RTVSPost2010Prop44ColorRGB
 90
      255
102
RTVSPost2010PropOp44
 70
     1
102
RTVSPost2010Prop45
280
     0
102
RTVSPost2010PropOp45
 70
     1
102
RTVSPost2010Prop46
 90
       50
102
RTVSPost2010PropOp46
 70
     1
102
RTVSPost2010Prop47
 90
       50
102
RTVSPost2010PropOp47
 70
     1
102
RTVSPost2010Prop48
 90
       50
102
RTVSPost2010PropOp48
 70
     1
102
RTVSPost2010Prop49
280
     0
102
RTVSPost2010PropOp49
 70
     1
102
RTVSPost2010Prop50
 90
       50
102
RTVSPost2010PropOp50
 70
     1
102
RTVSPost2010Prop51ColorIndex
 90
      256
102
RTVSPost2010Prop51ColorRGB
 90
-16777216
102
RTVSPost2010PropOp51
 70
     0
102
RTVSPost2010Prop52
140
1.0
102
RTVSPost2010PropOp52
 70
     0
102
RTVSPost2010Prop53
 90
        2
102
RTVSPost2010PropOp53
 70
     1
102
RTVSPost2010Prop54
  1
strokes_ogs.tif
102
RTVSPost2010PropOp54
 70
     1
102
RTVSPost2010Prop55
280
     0
102
RTVSPost2010PropOp55
 70
     1
102
RTVSPost2010Prop56
140
1.0
102
RTVSPost2010PropOp56
 70
     1
102
RTVSPost2010Prop57
140
1.0
102
RTVSPost2010PropOp57
 70
     1
  0
XRECORD
  5
19FB
102
{ACAD_REACTORS
330
19FA
102
}
330
19FA
100
AcDbXrecord
280
     1
102
RTVSPost2010Prop28
280
     0
102
RTVSPost2010PropOp28
 70
     1
102
RTVSPost2010Prop29
280
     1
102
RTVSPost2010PropOp29
 70
     1
102
RTVSPost2010Prop30
280
     1
102
RTVSPost2010PropOp30
 70
     1
102
RTVSPost2010Prop31
280
     0
102
RTVSPost2010PropOp31
 70
     1
102
RTVSPost2010Prop32
280
     0
102
RTVSPost2010PropOp32
 70
     1
102
RTVSPost2010Prop33
280
     0
102
RTVSPost2010PropOp33
 70
     1
102
RTVSPost2010Prop34
280
     0
102
RTVSPost2010PropOp34
 70
     1
102
RTVSPost2010Prop35
280
     0
102
RTVSPost2010PropOp35
 70
     1
102
RTVSPost2010Prop36
280
     0
102
RTVSPost2010PropOp36
 70
     1
102
RTVSPost2010Prop37
 90
       50
102
RTVSPost2010PropOp37
 70
     1
102
RTVSPost2010Prop38
140
0.0
102
RTVSPost2010PropOp38
 70
     1
102
RTVSPost2010Prop39
140
1.0
102
RTVSPost2010PropOp39
 70
     1
102
RTVSPost2010Prop40
 90
        0
102
RTVSPost2010PropOp40
 70
     1
102
RTVSPost2010Prop41ColorIndex
 90
       18
102
RTVSPost2010Prop41ColorRGB
 90
        0
102
RTVSPost2010PropOp41
 70
     1
102
RTVSPost2010Prop42
 90
       50
102
RTVSPost2010PropOp42
 70
     1
102
RTVSPost2010Prop43
 90
        3
102
RTVSPost2010PropOp43
 70
     1
102
RTVSPost2010Prop44ColorIndex
 90
        5
102
RTVSPost2010Prop44ColorRGB
 90
      255
102
RTVSPost2010PropOp44
 70
     1
102
RTVSPost2010Prop45
280
     0
102
RTVSPost2010PropOp45
 70
     1
102
RTVSPost2010Prop46
 90
       50
102
RTVSPost2010PropOp46
 70
     1
102
RTVSPost2010Prop47
 90
       50
102
RTVSPost2010PropOp47
 70
     1
102
RTVSPost2010Prop48
 90
       50
102
RTVSPost2010PropOp48
 70
     1
102
RTVSPost2010Prop49
280
     0
102
RTVSPost2010PropOp49
 70
     1
102
RTVSPost2010Prop50
 90
       50
102
RTVSPost2010PropOp50
 70
     1
102
RTVSPost2010Prop51ColorIndex
 90
      256
102
RTVSPost2010Prop51ColorRGB
 90
-16777216
102
RTVSPost2010PropOp51
 70
     0
102
RTVSPost2010Prop52
140
1.0
102
RTVSPost2010PropOp52
 70
     0
102
RTVSPost2010Prop53
 90
        2
102
RTVSPost2010PropOp53
 70
     1
102
RTVSPost2010Prop54
  1
strokes_ogs.tif
102
RTVSPost2010PropOp54
 70
     1
102
RTVSPost2010Prop55
280
     0
102
RTVSPost2010PropOp55
 70
     1
102
RTVSPost2010Prop56
140
1.0
102
RTVSPost2010PropOp56
 70
     1
102
RTVSPost2010Prop57
140
1.0
102
RTVSPost2010PropOp57
 70
     1
  0
XRECORD
  5
19F3
102
{ACAD_REACTORS
330
19F2
102
}
330
19F2
100
AcDbXrecord
280
     1
102
RTVSPost2010Prop28
280
     0
102
RTVSPost2010PropOp28
 70
     1
102
RTVSPost2010Prop29
280
     1
102
RTVSPost2010PropOp29
 70
     1
102
RTVSPost2010Prop30
280
     1
102
RTVSPost2010PropOp30
 70
     1
102
RTVSPost2010Prop31
280
     0
102
RTVSPost2010PropOp31
 70
     1
102
RTVSPost2010Prop32
280
     0
102
RTVSPost2010PropOp32
 70
     1
102
RTVSPost2010Prop33
280
     0
102
RTVSPost2010PropOp33
 70
     1
102
RTVSPost2010Prop34
280
     0
102
RTVSPost2010PropOp34
 70
     1
102
RTVSPost2010Prop35
280
     0
102
RTVSPost2010PropOp35
 70
     1
102
RTVSPost2010Prop36
280
     0
102
RTVSPost2010PropOp36
 70
     1
102
RTVSPost2010Prop37
 90
       50
102
RTVSPost2010PropOp37
 70
     1
102
RTVSPost2010Prop38
140
0.0
102
RTVSPost2010PropOp38
 70
     1
102
RTVSPost2010Prop39
140
1.0
102
RTVSPost2010PropOp39
 70
     1
102
RTVSPost2010Prop40
 90
        0
102
RTVSPost2010PropOp40
 70
     1
102
RTVSPost2010Prop41ColorIndex
 90
       18
102
RTVSPost2010Prop41ColorRGB
 90
        0
102
RTVSPost2010PropOp41
 70
     1
102
RTVSPost2010Prop42
 90
       50
102
RTVSPost2010PropOp42
 70
     1
102
RTVSPost2010Prop43
 90
        3
102
RTVSPost2010PropOp43
 70
     1
102
RTVSPost2010Prop44ColorIndex
 90
        5
102
RTVSPost2010Prop44ColorRGB
 90
      255
102
RTVSPost2010PropOp44
 70
     1
102
RTVSPost2010Prop45
280
     0
102
RTVSPost2010PropOp45
 70
     1
102
RTVSPost2010Prop46
 90
       50
102
RTVSPost2010PropOp46
 70
     1
102
RTVSPost2010Prop47
 90
       50
102
RTVSPost2010PropOp47
 70
     1
102
RTVSPost2010Prop48
 90
       50
102
RTVSPost2010PropOp48
 70
     1
102
RTVSPost2010Prop49
280
     0
102
RTVSPost2010PropOp49
 70
     1
102
RTVSPost2010Prop50
 90
       50
102
RTVSPost2010PropOp50
 70
     1
102
RTVSPost2010Prop51ColorIndex
 90
      256
102
RTVSPost2010Prop51ColorRGB
 90
-16777216
102
RTVSPost2010PropOp51
 70
     0
102
RTVSPost2010Prop52
140
1.0
102
RTVSPost2010PropOp52
 70
     0
102
RTVSPost2010Prop53
 90
        2
102
RTVSPost2010PropOp53
 70
     1
102
RTVSPost2010Prop54
  1
strokes_ogs.tif
102
RTVSPost2010PropOp54
 70
     1
102
RTVSPost2010Prop55
280
     0
102
RTVSPost2010PropOp55
 70
     1
102
RTVSPost2010Prop56
140
1.0
102
RTVSPost2010PropOp56
 70
     1
102
RTVSPost2010Prop57
140
1.0
102
RTVSPost2010PropOp57
 70
     1
  0
XRECORD
  5
19D7
102
{ACAD_REACTORS
330
19D6
102
}
330
19D6
100
AcDbXrecord
280
     1
102
RTVSPost2010Prop28
280
     0
102
RTVSPost2010PropOp28
 70
     1
102
RTVSPost2010Prop29
280
     1
102
RTVSPost2010PropOp29
 70
     1
102
RTVSPost2010Prop30
280
     1
102
RTVSPost2010PropOp30
 70
     1
102
RTVSPost2010Prop31
280
     0
102
RTVSPost2010PropOp31
 70
     1
102
RTVSPost2010Prop32
280
     0
102
RTVSPost2010PropOp32
 70
     1
102
RTVSPost2010Prop33
280
     0
102
RTVSPost2010PropOp33
 70
     1
102
RTVSPost2010Prop34
280
     0
102
RTVSPost2010PropOp34
 70
     1
102
RTVSPost2010Prop35
280
     0
102
RTVSPost2010PropOp35
 70
     1
102
RTVSPost2010Prop36
280
     0
102
RTVSPost2010PropOp36
 70
     1
102
RTVSPost2010Prop37
 90
       50
102
RTVSPost2010PropOp37
 70
     1
102
RTVSPost2010Prop38
140
0.0
102
RTVSPost2010PropOp38
 70
     1
102
RTVSPost2010Prop39
140
1.0
102
RTVSPost2010PropOp39
 70
     1
102
RTVSPost2010Prop40
 90
        0
102
RTVSPost2010PropOp40
 70
     1
102
RTVSPost2010Prop41ColorIndex
 90
       18
102
RTVSPost2010Prop41ColorRGB
 90
        0
102
RTVSPost2010PropOp41
 70
     1
102
RTVSPost2010Prop42
 90
       50
102
RTVSPost2010PropOp42
 70
     1
102
RTVSPost2010Prop43
 90
        3
102
RTVSPost2010PropOp43
 70
     1
102
RTVSPost2010Prop44ColorIndex
 90
        5
102
RTVSPost2010Prop44ColorRGB
 90
      255
102
RTVSPost2010PropOp44
 70
     1
102
RTVSPost2010Prop45
280
     0
102
RTVSPost2010PropOp45
 70
     1
102
RTVSPost2010Prop46
 90
       50
102
RTVSPost2010PropOp46
 70
     1
102
RTVSPost2010Prop47
 90
       50
102
RTVSPost2010PropOp47
 70
     1
102
RTVSPost2010Prop48
 90
       50
102
RTVSPost2010PropOp48
 70
     1
102
RTVSPost2010Prop49
280
     0
102
RTVSPost2010PropOp49
 70
     1
102
RTVSPost2010Prop50
 90
       50
102
RTVSPost2010PropOp50
 70
     1
102
RTVSPost2010Prop51ColorIndex
 90
      256
102
RTVSPost2010Prop51ColorRGB
 90
-16777216
102
RTVSPost2010PropOp51
 70
     0
102
RTVSPost2010Prop52
140
1.0
102
RTVSPost2010PropOp52
 70
     0
102
RTVSPost2010Prop53
 90
        2
102
RTVSPost2010PropOp53
 70
     1
102
RTVSPost2010Prop54
  1
strokes_ogs.tif
102
RTVSPost2010PropOp54
 70
     1
102
RTVSPost2010Prop55
280
     0
102
RTVSPost2010PropOp55
 70
     1
102
RTVSPost2010Prop56
140
1.0
102
RTVSPost2010PropOp56
 70
     1
102
RTVSPost2010Prop57
140
1.0
102
RTVSPost2010PropOp57
 70
     1
  0
XRECORD
  5
19D9
102
{ACAD_REACTORS
330
19D8
102
}
330
19D8
100
AcDbXrecord
280
     1
102
RTVSPost2010Prop28
280
     0
102
RTVSPost2010PropOp28
 70
     1
102
RTVSPost2010Prop29
280
     1
102
RTVSPost2010PropOp29
 70
     1
102
RTVSPost2010Prop30
280
     1
102
RTVSPost2010PropOp30
 70
     1
102
RTVSPost2010Prop31
280
     0
102
RTVSPost2010PropOp31
 70
     1
102
RTVSPost2010Prop32
280
     0
102
RTVSPost2010PropOp32
 70
     1
102
RTVSPost2010Prop33
280
     0
102
RTVSPost2010PropOp33
 70
     1
102
RTVSPost2010Prop34
280
     0
102
RTVSPost2010PropOp34
 70
     1
102
RTVSPost2010Prop35
280
     0
102
RTVSPost2010PropOp35
 70
     1
102
RTVSPost2010Prop36
280
     0
102
RTVSPost2010PropOp36
 70
     1
102
RTVSPost2010Prop37
 90
       50
102
RTVSPost2010PropOp37
 70
     1
102
RTVSPost2010Prop38
140
0.0
102
RTVSPost2010PropOp38
 70
     1
102
RTVSPost2010Prop39
140
1.0
102
RTVSPost2010PropOp39
 70
     1
102
RTVSPost2010Prop40
 90
        0
102
RTVSPost2010PropOp40
 70
     1
102
RTVSPost2010Prop41ColorIndex
 90
       18
102
RTVSPost2010Prop41ColorRGB
 90
        0
102
RTVSPost2010PropOp41
 70
     1
102
RTVSPost2010Prop42
 90
       50
102
RTVSPost2010PropOp42
 70
     1
102
RTVSPost2010Prop43
 90
        3
102
RTVSPost2010PropOp43
 70
     1
102
RTVSPost2010Prop44ColorIndex
 90
        5
102
RTVSPost2010Prop44ColorRGB
 90
      255
102
RTVSPost2010PropOp44
 70
     1
102
RTVSPost2010Prop45
280
     0
102
RTVSPost2010PropOp45
 70
     1
102
RTVSPost2010Prop46
 90
       50
102
RTVSPost2010PropOp46
 70
     1
102
RTVSPost2010Prop47
 90
       50
102
RTVSPost2010PropOp47
 70
     1
102
RTVSPost2010Prop48
 90
       50
102
RTVSPost2010PropOp48
 70
     1
102
RTVSPost2010Prop49
280
     0
102
RTVSPost2010PropOp49
 70
     1
102
RTVSPost2010Prop50
 90
       50
102
RTVSPost2010PropOp50
 70
     1
102
RTVSPost2010Prop51ColorIndex
 90
      256
102
RTVSPost2010Prop51ColorRGB
 90
-16777216
102
RTVSPost2010PropOp51
 70
     0
102
RTVSPost2010Prop52
140
1.0
102
RTVSPost2010PropOp52
 70
     0
102
RTVSPost2010Prop53
 90
        2
102
RTVSPost2010PropOp53
 70
     1
102
RTVSPost2010Prop54
  1
strokes_ogs.tif
102
RTVSPost2010PropOp54
 70
     1
102
RTVSPost2010Prop55
280
     0
102
RTVSPost2010PropOp55
 70
     1
102
RTVSPost2010Prop56
140
1.0
102
RTVSPost2010PropOp56
 70
     1
102
RTVSPost2010Prop57
140
1.0
102
RTVSPost2010PropOp57
 70
     1
  0
XRECORD
  5
19DB
102
{ACAD_REACTORS
330
19DA
102
}
330
19DA
100
AcDbXrecord
280
     1
102
RTVSPost2010Prop28
280
     0
102
RTVSPost2010PropOp28
 70
     1
102
RTVSPost2010Prop29
280
     1
102
RTVSPost2010PropOp29
 70
     1
102
RTVSPost2010Prop30
280
     1
102
RTVSPost2010PropOp30
 70
     1
102
RTVSPost2010Prop31
280
     0
102
RTVSPost2010PropOp31
 70
     1
102
RTVSPost2010Prop32
280
     0
102
RTVSPost2010PropOp32
 70
     1
102
RTVSPost2010Prop33
280
     0
102
RTVSPost2010PropOp33
 70
     1
102
RTVSPost2010Prop34
280
     0
102
RTVSPost2010PropOp34
 70
     1
102
RTVSPost2010Prop35
280
     0
102
RTVSPost2010PropOp35
 70
     1
102
RTVSPost2010Prop36
280
     0
102
RTVSPost2010PropOp36
 70
     1
102
RTVSPost2010Prop37
 90
       50
102
RTVSPost2010PropOp37
 70
     1
102
RTVSPost2010Prop38
140
0.0
102
RTVSPost2010PropOp38
 70
     1
102
RTVSPost2010Prop39
140
1.0
102
RTVSPost2010PropOp39
 70
     1
102
RTVSPost2010Prop40
 90
        0
102
RTVSPost2010PropOp40
 70
     1
102
RTVSPost2010Prop41ColorIndex
 90
       18
102
RTVSPost2010Prop41ColorRGB
 90
        0
102
RTVSPost2010PropOp41
 70
     1
102
RTVSPost2010Prop42
 90
       50
102
RTVSPost2010PropOp42
 70
     1
102
RTVSPost2010Prop43
 90
        3
102
RTVSPost2010PropOp43
 70
     1
102
RTVSPost2010Prop44ColorIndex
 90
        5
102
RTVSPost2010Prop44ColorRGB
 90
      255
102
RTVSPost2010PropOp44
 70
     1
102
RTVSPost2010Prop45
280
     0
102
RTVSPost2010PropOp45
 70
     1
102
RTVSPost2010Prop46
 90
       50
102
RTVSPost2010PropOp46
 70
     1
102
RTVSPost2010Prop47
 90
       50
102
RTVSPost2010PropOp47
 70
     1
102
RTVSPost2010Prop48
 90
       50
102
RTVSPost2010PropOp48
 70
     1
102
RTVSPost2010Prop49
280
     0
102
RTVSPost2010PropOp49
 70
     1
102
RTVSPost2010Prop50
 90
       50
102
RTVSPost2010PropOp50
 70
     1
102
RTVSPost2010Prop51ColorIndex
 90
      256
102
RTVSPost2010Prop51ColorRGB
 90
-16777216
102
RTVSPost2010PropOp51
 70
     0
102
RTVSPost2010Prop52
140
1.0
102
RTVSPost2010PropOp52
 70
     0
102
RTVSPost2010Prop53
 90
        2
102
RTVSPost2010PropOp53
 70
     1
102
RTVSPost2010Prop54
  1
strokes_ogs.tif
102
RTVSPost2010PropOp54
 70
     1
102
RTVSPost2010Prop55
280
     0
102
RTVSPost2010PropOp55
 70
     1
102
RTVSPost2010Prop56
140
1.0
102
RTVSPost2010PropOp56
 70
     1
102
RTVSPost2010Prop57
140
1.0
102
RTVSPost2010PropOp57
 70
     1
  0
XRECORD
  5
19DD
102
{ACAD_REACTORS
330
19DC
102
}
330
19DC
100
AcDbXrecord
280
     1
102
RTVSPost2010Prop28
280
     0
102
RTVSPost2010PropOp28
 70
     1
102
RTVSPost2010Prop29
280
     1
102
RTVSPost2010PropOp29
 70
     1
102
RTVSPost2010Prop30
280
     1
102
RTVSPost2010PropOp30
 70
     1
102
RTVSPost2010Prop31
280
     0
102
RTVSPost2010PropOp31
 70
     1
102
RTVSPost2010Prop32
280
     0
102
RTVSPost2010PropOp32
 70
     1
102
RTVSPost2010Prop33
280
     0
102
RTVSPost2010PropOp33
 70
     1
102
RTVSPost2010Prop34
280
     0
102
RTVSPost2010PropOp34
 70
     1
102
RTVSPost2010Prop35
280
     0
102
RTVSPost2010PropOp35
 70
     1
102
RTVSPost2010Prop36
280
     0
102
RTVSPost2010PropOp36
 70
     1
102
RTVSPost2010Prop37
 90
       50
102
RTVSPost2010PropOp37
 70
     1
102
RTVSPost2010Prop38
140
0.0
102
RTVSPost2010PropOp38
 70
     1
102
RTVSPost2010Prop39
140
1.0
102
RTVSPost2010PropOp39
 70
     1
102
RTVSPost2010Prop40
 90
        0
102
RTVSPost2010PropOp40
 70
     1
102
RTVSPost2010Prop41ColorIndex
 90
       18
102
RTVSPost2010Prop41ColorRGB
 90
        0
102
RTVSPost2010PropOp41
 70
     1
102
RTVSPost2010Prop42
 90
       50
102
RTVSPost2010PropOp42
 70
     1
102
RTVSPost2010Prop43
 90
        3
102
RTVSPost2010PropOp43
 70
     1
102
RTVSPost2010Prop44ColorIndex
 90
        5
102
RTVSPost2010Prop44ColorRGB
 90
      255
102
RTVSPost2010PropOp44
 70
     1
102
RTVSPost2010Prop45
280
     0
102
RTVSPost2010PropOp45
 70
     1
102
RTVSPost2010Prop46
 90
       50
102
RTVSPost2010PropOp46
 70
     1
102
RTVSPost2010Prop47
 90
       50
102
RTVSPost2010PropOp47
 70
     1
102
RTVSPost2010Prop48
 90
       50
102
RTVSPost2010PropOp48
 70
     1
102
RTVSPost2010Prop49
280
     0
102
RTVSPost2010PropOp49
 70
     1
102
RTVSPost2010Prop50
 90
       50
102
RTVSPost2010PropOp50
 70
     1
102
RTVSPost2010Prop51ColorIndex
 90
      256
102
RTVSPost2010Prop51ColorRGB
 90
-16777216
102
RTVSPost2010PropOp51
 70
     0
102
RTVSPost2010Prop52
140
1.0
102
RTVSPost2010PropOp52
 70
     0
102
RTVSPost2010Prop53
 90
        2
102
RTVSPost2010PropOp53
 70
     1
102
RTVSPost2010Prop54
  1
strokes_ogs.tif
102
RTVSPost2010PropOp54
 70
     1
102
RTVSPost2010Prop55
280
     0
102
RTVSPost2010PropOp55
 70
     1
102
RTVSPost2010Prop56
140
1.0
102
RTVSPost2010PropOp56
 70
     1
102
RTVSPost2010Prop57
140
1.0
102
RTVSPost2010PropOp57
 70
     1
  0
XRECORD
  5
19E5
102
{ACAD_REACTORS
330
19E4
102
}
330
19E4
100
AcDbXrecord
280
     1
102
RTVSPost2010Prop28
280
     0
102
RTVSPost2010PropOp28
 70
     1
102
RTVSPost2010Prop29
280
     1
102
RTVSPost2010PropOp29
 70
     1
102
RTVSPost2010Prop30
280
     1
102
RTVSPost2010PropOp30
 70
     1
102
RTVSPost2010Prop31
280
     0
102
RTVSPost2010PropOp31
 70
     1
102
RTVSPost2010Prop32
280
     0
102
RTVSPost2010PropOp32
 70
     1
102
RTVSPost2010Prop33
280
     0
102
RTVSPost2010PropOp33
 70
     1
102
RTVSPost2010Prop34
280
     0
102
RTVSPost2010PropOp34
 70
     1
102
RTVSPost2010Prop35
280
     0
102
RTVSPost2010PropOp35
 70
     1
102
RTVSPost2010Prop36
280
     0
102
RTVSPost2010PropOp36
 70
     1
102
RTVSPost2010Prop37
 90
       50
102
RTVSPost2010PropOp37
 70
     1
102
RTVSPost2010Prop38
140
0.0
102
RTVSPost2010PropOp38
 70
     1
102
RTVSPost2010Prop39
140
1.0
102
RTVSPost2010PropOp39
 70
     1
102
RTVSPost2010Prop40
 90
        0
102
RTVSPost2010PropOp40
 70
     1
102
RTVSPost2010Prop41ColorIndex
 90
       18
102
RTVSPost2010Prop41ColorRGB
 90
        0
102
RTVSPost2010PropOp41
 70
     1
102
RTVSPost2010Prop42
 90
       50
102
RTVSPost2010PropOp42
 70
     1
102
RTVSPost2010Prop43
 90
        3
102
RTVSPost2010PropOp43
 70
     1
102
RTVSPost2010Prop44ColorIndex
 90
        5
102
RTVSPost2010Prop44ColorRGB
 90
      255
102
RTVSPost2010PropOp44
 70
     1
102
RTVSPost2010Prop45
280
     0
102
RTVSPost2010PropOp45
 70
     1
102
RTVSPost2010Prop46
 90
       50
102
RTVSPost2010PropOp46
 70
     1
102
RTVSPost2010Prop47
 90
       50
102
RTVSPost2010PropOp47
 70
     1
102
RTVSPost2010Prop48
 90
       50
102
RTVSPost2010PropOp48
 70
     1
102
RTVSPost2010Prop49
280
     0
102
RTVSPost2010PropOp49
 70
     1
102
RTVSPost2010Prop50
 90
       50
102
RTVSPost2010PropOp50
 70
     1
102
RTVSPost2010Prop51ColorIndex
 90
      256
102
RTVSPost2010Prop51ColorRGB
 90
-16777216
102
RTVSPost2010PropOp51
 70
     0
102
RTVSPost2010Prop52
140
1.0
102
RTVSPost2010PropOp52
 70
     0
102
RTVSPost2010Prop53
 90
        2
102
RTVSPost2010PropOp53
 70
     1
102
RTVSPost2010Prop54
  1
strokes_ogs.tif
102
RTVSPost2010PropOp54
 70
     1
102
RTVSPost2010Prop55
280
     0
102
RTVSPost2010PropOp55
 70
     1
102
RTVSPost2010Prop56
140
1.0
102
RTVSPost2010PropOp56
 70
     1
102
RTVSPost2010Prop57
140
1.0
102
RTVSPost2010PropOp57
 70
     1
  0
XRECORD
  5
19F7
102
{ACAD_REACTORS
330
19F6
102
}
330
19F6
100
AcDbXrecord
280
     1
102
RTVSPost2010Prop28
280
     0
102
RTVSPost2010PropOp28
 70
     1
102
RTVSPost2010Prop29
280
     1
102
RTVSPost2010PropOp29
 70
     1
102
RTVSPost2010Prop30
280
     1
102
RTVSPost2010PropOp30
 70
     1
102
RTVSPost2010Prop31
280
     0
102
RTVSPost2010PropOp31
 70
     1
102
RTVSPost2010Prop32
280
     0
102
RTVSPost2010PropOp32
 70
     1
102
RTVSPost2010Prop33
280
     0
102
RTVSPost2010PropOp33
 70
     1
102
RTVSPost2010Prop34
280
     0
102
RTVSPost2010PropOp34
 70
     1
102
RTVSPost2010Prop35
280
     0
102
RTVSPost2010PropOp35
 70
     1
102
RTVSPost2010Prop36
280
     0
102
RTVSPost2010PropOp36
 70
     1
102
RTVSPost2010Prop37
 90
       50
102
RTVSPost2010PropOp37
 70
     1
102
RTVSPost2010Prop38
140
0.0
102
RTVSPost2010PropOp38
 70
     1
102
RTVSPost2010Prop39
140
1.0
102
RTVSPost2010PropOp39
 70
     1
102
RTVSPost2010Prop40
 90
        0
102
RTVSPost2010PropOp40
 70
     1
102
RTVSPost2010Prop41ColorIndex
 90
       18
102
RTVSPost2010Prop41ColorRGB
 90
        0
102
RTVSPost2010PropOp41
 70
     1
102
RTVSPost2010Prop42
 90
       50
102
RTVSPost2010PropOp42
 70
     1
102
RTVSPost2010Prop43
 90
        3
102
RTVSPost2010PropOp43
 70
     1
102
RTVSPost2010Prop44ColorIndex
 90
        5
102
RTVSPost2010Prop44ColorRGB
 90
      255
102
RTVSPost2010PropOp44
 70
     1
102
RTVSPost2010Prop45
280
     0
102
RTVSPost2010PropOp45
 70
     1
102
RTVSPost2010Prop46
 90
       50
102
RTVSPost2010PropOp46
 70
     1
102
RTVSPost2010Prop47
 90
       50
102
RTVSPost2010PropOp47
 70
     1
102
RTVSPost2010Prop48
 90
       50
102
RTVSPost2010PropOp48
 70
     1
102
RTVSPost2010Prop49
280
     0
102
RTVSPost2010PropOp49
 70
     1
102
RTVSPost2010Prop50
 90
       50
102
RTVSPost2010PropOp50
 70
     1
102
RTVSPost2010Prop51ColorIndex
 90
      256
102
RTVSPost2010Prop51ColorRGB
 90
-16777216
102
RTVSPost2010PropOp51
 70
     0
102
RTVSPost2010Prop52
140
1.0
102
RTVSPost2010PropOp52
 70
     0
102
RTVSPost2010Prop53
 90
        2
102
RTVSPost2010PropOp53
 70
     1
102
RTVSPost2010Prop54
  1
strokes_ogs.tif
102
RTVSPost2010PropOp54
 70
     1
102
RTVSPost2010Prop55
280
     0
102
RTVSPost2010PropOp55
 70
     1
102
RTVSPost2010Prop56
140
1.0
102
RTVSPost2010PropOp56
 70
     1
102
RTVSPost2010Prop57
140
1.0
102
RTVSPost2010PropOp57
 70
     1
  0
XRECORD
  5
19F1
102
{ACAD_REACTORS
330
19F0
102
}
330
19F0
100
AcDbXrecord
280
     1
102
RTVSPost2010Prop28
280
     0
102
RTVSPost2010PropOp28
 70
     1
102
RTVSPost2010Prop29
280
     1
102
RTVSPost2010PropOp29
 70
     1
102
RTVSPost2010Prop30
280
     1
102
RTVSPost2010PropOp30
 70
     1
102
RTVSPost2010Prop31
280
     0
102
RTVSPost2010PropOp31
 70
     1
102
RTVSPost2010Prop32
280
     0
102
RTVSPost2010PropOp32
 70
     1
102
RTVSPost2010Prop33
280
     0
102
RTVSPost2010PropOp33
 70
     1
102
RTVSPost2010Prop34
280
     0
102
RTVSPost2010PropOp34
 70
     1
102
RTVSPost2010Prop35
280
     0
102
RTVSPost2010PropOp35
 70
     1
102
RTVSPost2010Prop36
280
     0
102
RTVSPost2010PropOp36
 70
     1
102
RTVSPost2010Prop37
 90
       50
102
RTVSPost2010PropOp37
 70
     1
102
RTVSPost2010Prop38
140
0.0
102
RTVSPost2010PropOp38
 70
     1
102
RTVSPost2010Prop39
140
1.0
102
RTVSPost2010PropOp39
 70
     1
102
RTVSPost2010Prop40
 90
        0
102
RTVSPost2010PropOp40
 70
     1
102
RTVSPost2010Prop41ColorIndex
 90
       18
102
RTVSPost2010Prop41ColorRGB
 90
        0
102
RTVSPost2010PropOp41
 70
     1
102
RTVSPost2010Prop42
 90
       50
102
RTVSPost2010PropOp42
 70
     1
102
RTVSPost2010Prop43
 90
        3
102
RTVSPost2010PropOp43
 70
     1
102
RTVSPost2010Prop44ColorIndex
 90
        5
102
RTVSPost2010Prop44ColorRGB
 90
      255
102
RTVSPost2010PropOp44
 70
     1
102
RTVSPost2010Prop45
280
     0
102
RTVSPost2010PropOp45
 70
     1
102
RTVSPost2010Prop46
 90
       50
102
RTVSPost2010PropOp46
 70
     1
102
RTVSPost2010Prop47
 90
       50
102
RTVSPost2010PropOp47
 70
     1
102
RTVSPost2010Prop48
 90
       50
102
RTVSPost2010PropOp48
 70
     1
102
RTVSPost2010Prop49
280
     0
102
RTVSPost2010PropOp49
 70
     1
102
RTVSPost2010Prop50
 90
       50
102
RTVSPost2010PropOp50
 70
     1
102
RTVSPost2010Prop51ColorIndex
 90
      256
102
RTVSPost2010Prop51ColorRGB
 90
-16777216
102
RTVSPost2010PropOp51
 70
     0
102
RTVSPost2010Prop52
140
1.0
102
RTVSPost2010PropOp52
 70
     0
102
RTVSPost2010Prop53
 90
        2
102
RTVSPost2010PropOp53
 70
     1
102
RTVSPost2010Prop54
  1
strokes_ogs.tif
102
RTVSPost2010PropOp54
 70
     1
102
RTVSPost2010Prop55
280
     0
102
RTVSPost2010PropOp55
 70
     1
102
RTVSPost2010Prop56
140
1.0
102
RTVSPost2010PropOp56
 70
     1
102
RTVSPost2010Prop57
140
1.0
102
RTVSPost2010PropOp57
 70
     1
  0
XRECORD
  5
19F9
102
{ACAD_REACTORS
330
19F8
102
}
330
19F8
100
AcDbXrecord
280
     1
102
RTVSPost2010Prop28
280
     0
102
RTVSPost2010PropOp28
 70
     1
102
RTVSPost2010Prop29
280
     1
102
RTVSPost2010PropOp29
 70
     1
102
RTVSPost2010Prop30
280
     1
102
RTVSPost2010PropOp30
 70
     1
102
RTVSPost2010Prop31
280
     0
102
RTVSPost2010PropOp31
 70
     1
102
RTVSPost2010Prop32
280
     0
102
RTVSPost2010PropOp32
 70
     1
102
RTVSPost2010Prop33
280
     0
102
RTVSPost2010PropOp33
 70
     1
102
RTVSPost2010Prop34
280
     0
102
RTVSPost2010PropOp34
 70
     1
102
RTVSPost2010Prop35
280
     0
102
RTVSPost2010PropOp35
 70
     1
102
RTVSPost2010Prop36
280
     0
102
RTVSPost2010PropOp36
 70
     1
102
RTVSPost2010Prop37
 90
       50
102
RTVSPost2010PropOp37
 70
     1
102
RTVSPost2010Prop38
140
0.0
102
RTVSPost2010PropOp38
 70
     1
102
RTVSPost2010Prop39
140
1.0
102
RTVSPost2010PropOp39
 70
     1
102
RTVSPost2010Prop40
 90
        0
102
RTVSPost2010PropOp40
 70
     1
102
RTVSPost2010Prop41ColorIndex
 90
       18
102
RTVSPost2010Prop41ColorRGB
 90
        0
102
RTVSPost2010PropOp41
 70
     1
102
RTVSPost2010Prop42
 90
       50
102
RTVSPost2010PropOp42
 70
     1
102
RTVSPost2010Prop43
 90
        3
102
RTVSPost2010PropOp43
 70
     1
102
RTVSPost2010Prop44ColorIndex
 90
        5
102
RTVSPost2010Prop44ColorRGB
 90
      255
102
RTVSPost2010PropOp44
 70
     1
102
RTVSPost2010Prop45
280
     0
102
RTVSPost2010PropOp45
 70
     1
102
RTVSPost2010Prop46
 90
       50
102
RTVSPost2010PropOp46
 70
     1
102
RTVSPost2010Prop47
 90
       50
102
RTVSPost2010PropOp47
 70
     1
102
RTVSPost2010Prop48
 90
       50
102
RTVSPost2010PropOp48
 70
     1
102
RTVSPost2010Prop49
280
     0
102
RTVSPost2010PropOp49
 70
     1
102
RTVSPost2010Prop50
 90
       50
102
RTVSPost2010PropOp50
 70
     1
102
RTVSPost2010Prop51ColorIndex
 90
      256
102
RTVSPost2010Prop51ColorRGB
 90
-16777216
102
RTVSPost2010PropOp51
 70
     0
102
RTVSPost2010Prop52
140
1.0
102
RTVSPost2010PropOp52
 70
     0
102
RTVSPost2010Prop53
 90
        2
102
RTVSPost2010PropOp53
 70
     1
102
RTVSPost2010Prop54
  1
strokes_ogs.tif
102
RTVSPost2010PropOp54
 70
     1
102
RTVSPost2010Prop55
280
     0
102
RTVSPost2010PropOp55
 70
     1
102
RTVSPost2010Prop56
140
1.0
102
RTVSPost2010PropOp56
 70
     1
102
RTVSPost2010Prop57
140
1.0
102
RTVSPost2010PropOp57
 70
     1
  0
XRECORD
  5
19E9
102
{ACAD_REACTORS
330
19E8
102
}
330
19E8
100
AcDbXrecord
280
     1
102
RTVSPost2010Prop28
280
     0
102
RTVSPost2010PropOp28
 70
     1
102
RTVSPost2010Prop29
280
     1
102
RTVSPost2010PropOp29
 70
     1
102
RTVSPost2010Prop30
280
     1
102
RTVSPost2010PropOp30
 70
     1
102
RTVSPost2010Prop31
280
     0
102
RTVSPost2010PropOp31
 70
     1
102
RTVSPost2010Prop32
280
     0
102
RTVSPost2010PropOp32
 70
     1
102
RTVSPost2010Prop33
280
     0
102
RTVSPost2010PropOp33
 70
     1
102
RTVSPost2010Prop34
280
     0
102
RTVSPost2010PropOp34
 70
     1
102
RTVSPost2010Prop35
280
     0
102
RTVSPost2010PropOp35
 70
     1
102
RTVSPost2010Prop36
280
     0
102
RTVSPost2010PropOp36
 70
     1
102
RTVSPost2010Prop37
 90
       50
102
RTVSPost2010PropOp37
 70
     1
102
RTVSPost2010Prop38
140
0.0
102
RTVSPost2010PropOp38
 70
     1
102
RTVSPost2010Prop39
140
1.0
102
RTVSPost2010PropOp39
 70
     1
102
RTVSPost2010Prop40
 90
        0
102
RTVSPost2010PropOp40
 70
     1
102
RTVSPost2010Prop41ColorIndex
 90
       18
102
RTVSPost2010Prop41ColorRGB
 90
        0
102
RTVSPost2010PropOp41
 70
     1
102
RTVSPost2010Prop42
 90
       50
102
RTVSPost2010PropOp42
 70
     1
102
RTVSPost2010Prop43
 90
        3
102
RTVSPost2010PropOp43
 70
     1
102
RTVSPost2010Prop44ColorIndex
 90
        5
102
RTVSPost2010Prop44ColorRGB
 90
      255
102
RTVSPost2010PropOp44
 70
     1
102
RTVSPost2010Prop45
280
     0
102
RTVSPost2010PropOp45
 70
     1
102
RTVSPost2010Prop46
 90
       50
102
RTVSPost2010PropOp46
 70
     1
102
RTVSPost2010Prop47
 90
       50
102
RTVSPost2010PropOp47
 70
     1
102
RTVSPost2010Prop48
 90
       50
102
RTVSPost2010PropOp48
 70
     1
102
RTVSPost2010Prop49
280
     0
102
RTVSPost2010PropOp49
 70
     1
102
RTVSPost2010Prop50
 90
       50
102
RTVSPost2010PropOp50
 70
     1
102
RTVSPost2010Prop51ColorIndex
 90
      256
102
RTVSPost2010Prop51ColorRGB
 90
-16777216
102
RTVSPost2010PropOp51
 70
     0
102
RTVSPost2010Prop52
140
1.0
102
RTVSPost2010PropOp52
 70
     0
102
RTVSPost2010Prop53
 90
        2
102
RTVSPost2010PropOp53
 70
     1
102
RTVSPost2010Prop54
  1
strokes_ogs.tif
102
RTVSPost2010PropOp54
 70
     1
102
RTVSPost2010Prop55
280
     0
102
RTVSPost2010PropOp55
 70
     1
102
RTVSPost2010Prop56
140
1.0
102
RTVSPost2010PropOp56
 70
     1
102
RTVSPost2010Prop57
140
1.0
102
RTVSPost2010PropOp57
 70
     1
  0
XRECORD
  5
1A05
102
{ACAD_REACTORS
330
1A04
102
}
330
1A04
100
AcDbXrecord
280
     1
102
RTVSPost2010Prop28
280
     0
102
RTVSPost2010PropOp28
 70
     1
102
RTVSPost2010Prop29
280
     1
102
RTVSPost2010PropOp29
 70
     1
102
RTVSPost2010Prop30
280
     1
102
RTVSPost2010PropOp30
 70
     1
102
RTVSPost2010Prop31
280
     0
102
RTVSPost2010PropOp31
 70
     1
102
RTVSPost2010Prop32
280
     0
102
RTVSPost2010PropOp32
 70
     1
102
RTVSPost2010Prop33
280
     0
102
RTVSPost2010PropOp33
 70
     1
102
RTVSPost2010Prop34
280
     0
102
RTVSPost2010PropOp34
 70
     1
102
RTVSPost2010Prop35
280
     0
102
RTVSPost2010PropOp35
 70
     1
102
RTVSPost2010Prop36
280
     0
102
RTVSPost2010PropOp36
 70
     1
102
RTVSPost2010Prop37
 90
       50
102
RTVSPost2010PropOp37
 70
     1
102
RTVSPost2010Prop38
140
0.0
102
RTVSPost2010PropOp38
 70
     1
102
RTVSPost2010Prop39
140
1.0
102
RTVSPost2010PropOp39
 70
     1
102
RTVSPost2010Prop40
 90
        0
102
RTVSPost2010PropOp40
 70
     1
102
RTVSPost2010Prop41ColorIndex
 90
       18
102
RTVSPost2010Prop41ColorRGB
 90
        0
102
RTVSPost2010PropOp41
 70
     1
102
RTVSPost2010Prop42
 90
       50
102
RTVSPost2010PropOp42
 70
     1
102
RTVSPost2010Prop43
 90
        3
102
RTVSPost2010PropOp43
 70
     1
102
RTVSPost2010Prop44ColorIndex
 90
        5
102
RTVSPost2010Prop44ColorRGB
 90
      255
102
RTVSPost2010PropOp44
 70
     1
102
RTVSPost2010Prop45
280
     0
102
RTVSPost2010PropOp45
 70
     1
102
RTVSPost2010Prop46
 90
       50
102
RTVSPost2010PropOp46
 70
     1
102
RTVSPost2010Prop47
 90
       50
102
RTVSPost2010PropOp47
 70
     1
102
RTVSPost2010Prop48
 90
       50
102
RTVSPost2010PropOp48
 70
     1
102
RTVSPost2010Prop49
280
     0
102
RTVSPost2010PropOp49
 70
     1
102
RTVSPost2010Prop50
 90
       50
102
RTVSPost2010PropOp50
 70
     1
102
RTVSPost2010Prop51ColorIndex
 90
      256
102
RTVSPost2010Prop51ColorRGB
 90
-16777216
102
RTVSPost2010PropOp51
 70
     0
102
RTVSPost2010Prop52
140
1.0
102
RTVSPost2010PropOp52
 70
     0
102
RTVSPost2010Prop53
 90
        2
102
RTVSPost2010PropOp53
 70
     1
102
RTVSPost2010Prop54
  1
strokes_ogs.tif
102
RTVSPost2010PropOp54
 70
     1
102
RTVSPost2010Prop55
280
     0
102
RTVSPost2010PropOp55
 70
     1
102
RTVSPost2010Prop56
140
1.0
102
RTVSPost2010PropOp56
 70
     1
102
RTVSPost2010Prop57
140
1.0
102
RTVSPost2010PropOp57
 70
     1
  0
XRECORD
  5
1A03
102
{ACAD_REACTORS
330
1A02
102
}
330
1A02
100
AcDbXrecord
280
     1
102
RTVSPost2010Prop28
280
     0
102
RTVSPost2010PropOp28
 70
     1
102
RTVSPost2010Prop29
280
     1
102
RTVSPost2010PropOp29
 70
     1
102
RTVSPost2010Prop30
280
     1
102
RTVSPost2010PropOp30
 70
     1
102
RTVSPost2010Prop31
280
     0
102
RTVSPost2010PropOp31
 70
     1
102
RTVSPost2010Prop32
280
     0
102
RTVSPost2010PropOp32
 70
     1
102
RTVSPost2010Prop33
280
     0
102
RTVSPost2010PropOp33
 70
     1
102
RTVSPost2010Prop34
280
     0
102
RTVSPost2010PropOp34
 70
     1
102
RTVSPost2010Prop35
280
     0
102
RTVSPost2010PropOp35
 70
     1
102
RTVSPost2010Prop36
280
     0
102
RTVSPost2010PropOp36
 70
     1
102
RTVSPost2010Prop37
 90
       50
102
RTVSPost2010PropOp37
 70
     1
102
RTVSPost2010Prop38
140
0.0
102
RTVSPost2010PropOp38
 70
     1
102
RTVSPost2010Prop39
140
1.0
102
RTVSPost2010PropOp39
 70
     1
102
RTVSPost2010Prop40
 90
        0
102
RTVSPost2010PropOp40
 70
     1
102
RTVSPost2010Prop41ColorIndex
 90
       18
102
RTVSPost2010Prop41ColorRGB
 90
        0
102
RTVSPost2010PropOp41
 70
     1
102
RTVSPost2010Prop42
 90
       50
102
RTVSPost2010PropOp42
 70
     1
102
RTVSPost2010Prop43
 90
        3
102
RTVSPost2010PropOp43
 70
     1
102
RTVSPost2010Prop44ColorIndex
 90
        5
102
RTVSPost2010Prop44ColorRGB
 90
      255
102
RTVSPost2010PropOp44
 70
     1
102
RTVSPost2010Prop45
280
     0
102
RTVSPost2010PropOp45
 70
     1
102
RTVSPost2010Prop46
 90
       50
102
RTVSPost2010PropOp46
 70
     1
102
RTVSPost2010Prop47
 90
       50
102
RTVSPost2010PropOp47
 70
     1
102
RTVSPost2010Prop48
 90
       50
102
RTVSPost2010PropOp48
 70
     1
102
RTVSPost2010Prop49
280
     0
102
RTVSPost2010PropOp49
 70
     1
102
RTVSPost2010Prop50
 90
       50
102
RTVSPost2010PropOp50
 70
     1
102
RTVSPost2010Prop51ColorIndex
 90
      256
102
RTVSPost2010Prop51ColorRGB
 90
-16777216
102
RTVSPost2010PropOp51
 70
     0
102
RTVSPost2010Prop52
140
1.0
102
RTVSPost2010PropOp52
 70
     0
102
RTVSPost2010Prop53
 90
        2
102
RTVSPost2010PropOp53
 70
     1
102
RTVSPost2010Prop54
  1
strokes_ogs.tif
102
RTVSPost2010PropOp54
 70
     1
102
RTVSPost2010Prop55
280
     0
102
RTVSPost2010PropOp55
 70
     1
102
RTVSPost2010Prop56
140
1.0
102
RTVSPost2010PropOp56
 70
     1
102
RTVSPost2010Prop57
140
1.0
102
RTVSPost2010PropOp57
 70
     1
  0
XRECORD
  5
19FD
102
{ACAD_REACTORS
330
19FC
102
}
330
19FC
100
AcDbXrecord
280
     1
102
RTVSPost2010Prop28
280
     0
102
RTVSPost2010PropOp28
 70
     1
102
RTVSPost2010Prop29
280
     1
102
RTVSPost2010PropOp29
 70
     1
102
RTVSPost2010Prop30
280
     1
102
RTVSPost2010PropOp30
 70
     1
102
RTVSPost2010Prop31
280
     0
102
RTVSPost2010PropOp31
 70
     1
102
RTVSPost2010Prop32
280
     0
102
RTVSPost2010PropOp32
 70
     1
102
RTVSPost2010Prop33
280
     0
102
RTVSPost2010PropOp33
 70
     1
102
RTVSPost2010Prop34
280
     0
102
RTVSPost2010PropOp34
 70
     1
102
RTVSPost2010Prop35
280
     0
102
RTVSPost2010PropOp35
 70
     1
102
RTVSPost2010Prop36
280
     0
102
RTVSPost2010PropOp36
 70
     1
102
RTVSPost2010Prop37
 90
       50
102
RTVSPost2010PropOp37
 70
     1
102
RTVSPost2010Prop38
140
0.0
102
RTVSPost2010PropOp38
 70
     1
102
RTVSPost2010Prop39
140
1.0
102
RTVSPost2010PropOp39
 70
     1
102
RTVSPost2010Prop40
 90
        0
102
RTVSPost2010PropOp40
 70
     1
102
RTVSPost2010Prop41ColorIndex
 90
       18
102
RTVSPost2010Prop41ColorRGB
 90
        0
102
RTVSPost2010PropOp41
 70
     1
102
RTVSPost2010Prop42
 90
       50
102
RTVSPost2010PropOp42
 70
     1
102
RTVSPost2010Prop43
 90
        3
102
RTVSPost2010PropOp43
 70
     1
102
RTVSPost2010Prop44ColorIndex
 90
        5
102
RTVSPost2010Prop44ColorRGB
 90
      255
102
RTVSPost2010PropOp44
 70
     1
102
RTVSPost2010Prop45
280
     0
102
RTVSPost2010PropOp45
 70
     1
102
RTVSPost2010Prop46
 90
       50
102
RTVSPost2010PropOp46
 70
     1
102
RTVSPost2010Prop47
 90
       50
102
RTVSPost2010PropOp47
 70
     1
102
RTVSPost2010Prop48
 90
       50
102
RTVSPost2010PropOp48
 70
     1
102
RTVSPost2010Prop49
280
     0
102
RTVSPost2010PropOp49
 70
     1
102
RTVSPost2010Prop50
 90
       50
102
RTVSPost2010PropOp50
 70
     1
102
RTVSPost2010Prop51ColorIndex
 90
      256
102
RTVSPost2010Prop51ColorRGB
 90
-16777216
102
RTVSPost2010PropOp51
 70
     0
102
RTVSPost2010Prop52
140
1.0
102
RTVSPost2010PropOp52
 70
     0
102
RTVSPost2010Prop53
 90
        2
102
RTVSPost2010PropOp53
 70
     1
102
RTVSPost2010Prop54
  1
strokes_ogs.tif
102
RTVSPost2010PropOp54
 70
     1
102
RTVSPost2010Prop55
280
     0
102
RTVSPost2010PropOp55
 70
     1
102
RTVSPost2010Prop56
140
1.0
102
RTVSPost2010PropOp56
 70
     1
102
RTVSPost2010Prop57
140
1.0
102
RTVSPost2010PropOp57
 70
     1
  0
XRECORD
  5
19FF
102
{ACAD_REACTORS
330
19FE
102
}
330
19FE
100
AcDbXrecord
280
     1
102
RTVSPost2010Prop28
280
     0
102
RTVSPost2010PropOp28
 70
     1
102
RTVSPost2010Prop29
280
     1
102
RTVSPost2010PropOp29
 70
     1
102
RTVSPost2010Prop30
280
     1
102
RTVSPost2010PropOp30
 70
     1
102
RTVSPost2010Prop31
280
     0
102
RTVSPost2010PropOp31
 70
     1
102
RTVSPost2010Prop32
280
     0
102
RTVSPost2010PropOp32
 70
     1
102
RTVSPost2010Prop33
280
     0
102
RTVSPost2010PropOp33
 70
     1
102
RTVSPost2010Prop34
280
     0
102
RTVSPost2010PropOp34
 70
     1
102
RTVSPost2010Prop35
280
     0
102
RTVSPost2010PropOp35
 70
     1
102
RTVSPost2010Prop36
280
     0
102
RTVSPost2010PropOp36
 70
     1
102
RTVSPost2010Prop37
 90
       50
102
RTVSPost2010PropOp37
 70
     1
102
RTVSPost2010Prop38
140
0.0
102
RTVSPost2010PropOp38
 70
     1
102
RTVSPost2010Prop39
140
1.0
102
RTVSPost2010PropOp39
 70
     1
102
RTVSPost2010Prop40
 90
        0
102
RTVSPost2010PropOp40
 70
     1
102
RTVSPost2010Prop41ColorIndex
 90
       18
102
RTVSPost2010Prop41ColorRGB
 90
        0
102
RTVSPost2010PropOp41
 70
     1
102
RTVSPost2010Prop42
 90
       50
102
RTVSPost2010PropOp42
 70
     1
102
RTVSPost2010Prop43
 90
        3
102
RTVSPost2010PropOp43
 70
     1
102
RTVSPost2010Prop44ColorIndex
 90
        5
102
RTVSPost2010Prop44ColorRGB
 90
      255
102
RTVSPost2010PropOp44
 70
     1
102
RTVSPost2010Prop45
280
     0
102
RTVSPost2010PropOp45
 70
     1
102
RTVSPost2010Prop46
 90
       50
102
RTVSPost2010PropOp46
 70
     1
102
RTVSPost2010Prop47
 90
       50
102
RTVSPost2010PropOp47
 70
     1
102
RTVSPost2010Prop48
 90
       50
102
RTVSPost2010PropOp48
 70
     1
102
RTVSPost2010Prop49
280
     0
102
RTVSPost2010PropOp49
 70
     1
102
RTVSPost2010Prop50
 90
       50
102
RTVSPost2010PropOp50
 70
     1
102
RTVSPost2010Prop51ColorIndex
 90
      256
102
RTVSPost2010Prop51ColorRGB
 90
-16777216
102
RTVSPost2010PropOp51
 70
     0
102
RTVSPost2010Prop52
140
1.0
102
RTVSPost2010PropOp52
 70
     0
102
RTVSPost2010Prop53
 90
        2
102
RTVSPost2010PropOp53
 70
     1
102
RTVSPost2010Prop54
  1
strokes_ogs.tif
102
RTVSPost2010PropOp54
 70
     1
102
RTVSPost2010Prop55
280
     0
102
RTVSPost2010PropOp55
 70
     1
102
RTVSPost2010Prop56
140
1.0
102
RTVSPost2010PropOp56
 70
     1
102
RTVSPost2010Prop57
140
1.0
102
RTVSPost2010PropOp57
 70
     1
  0
XRECORD
  5
19EF
102
{ACAD_REACTORS
330
19EE
102
}
330
19EE
100
AcDbXrecord
280
     1
102
RTVSPost2010Prop28
280
     0
102
RTVSPost2010PropOp28
 70
     1
102
RTVSPost2010Prop29
280
     1
102
RTVSPost2010PropOp29
 70
     1
102
RTVSPost2010Prop30
280
     1
102
RTVSPost2010PropOp30
 70
     1
102
RTVSPost2010Prop31
280
     0
102
RTVSPost2010PropOp31
 70
     1
102
RTVSPost2010Prop32
280
     0
102
RTVSPost2010PropOp32
 70
     1
102
RTVSPost2010Prop33
280
     0
102
RTVSPost2010PropOp33
 70
     1
102
RTVSPost2010Prop34
280
     0
102
RTVSPost2010PropOp34
 70
     1
102
RTVSPost2010Prop35
280
     0
102
RTVSPost2010PropOp35
 70
     1
102
RTVSPost2010Prop36
280
     0
102
RTVSPost2010PropOp36
 70
     1
102
RTVSPost2010Prop37
 90
       50
102
RTVSPost2010PropOp37
 70
     1
102
RTVSPost2010Prop38
140
0.0
102
RTVSPost2010PropOp38
 70
     1
102
RTVSPost2010Prop39
140
1.0
102
RTVSPost2010PropOp39
 70
     1
102
RTVSPost2010Prop40
 90
        0
102
RTVSPost2010PropOp40
 70
     1
102
RTVSPost2010Prop41ColorIndex
 90
       18
102
RTVSPost2010Prop41ColorRGB
 90
        0
102
RTVSPost2010PropOp41
 70
     1
102
RTVSPost2010Prop42
 90
       50
102
RTVSPost2010PropOp42
 70
     1
102
RTVSPost2010Prop43
 90
        3
102
RTVSPost2010PropOp43
 70
     1
102
RTVSPost2010Prop44ColorIndex
 90
        5
102
RTVSPost2010Prop44ColorRGB
 90
      255
102
RTVSPost2010PropOp44
 70
     1
102
RTVSPost2010Prop45
280
     0
102
RTVSPost2010PropOp45
 70
     1
102
RTVSPost2010Prop46
 90
       50
102
RTVSPost2010PropOp46
 70
     1
102
RTVSPost2010Prop47
 90
       50
102
RTVSPost2010PropOp47
 70
     1
102
RTVSPost2010Prop48
 90
       50
102
RTVSPost2010PropOp48
 70
     1
102
RTVSPost2010Prop49
280
     0
102
RTVSPost2010PropOp49
 70
     1
102
RTVSPost2010Prop50
 90
       50
102
RTVSPost2010PropOp50
 70
     1
102
RTVSPost2010Prop51ColorIndex
 90
      256
102
RTVSPost2010Prop51ColorRGB
 90
-16777216
102
RTVSPost2010PropOp51
 70
     0
102
RTVSPost2010Prop52
140
1.0
102
RTVSPost2010PropOp52
 70
     0
102
RTVSPost2010Prop53
 90
        2
102
RTVSPost2010PropOp53
 70
     1
102
RTVSPost2010Prop54
  1
strokes_ogs.tif
102
RTVSPost2010PropOp54
 70
     1
102
RTVSPost2010Prop55
280
     0
102
RTVSPost2010PropOp55
 70
     1
102
RTVSPost2010Prop56
140
1.0
102
RTVSPost2010PropOp56
 70
     1
102
RTVSPost2010Prop57
140
1.0
102
RTVSPost2010PropOp57
 70
     1
  0
XRECORD
  5
19E3
102
{ACAD_REACTORS
330
19E2
102
}
330
19E2
100
AcDbXrecord
280
     1
102
RTVSPost2010Prop28
280
     0
102
RTVSPost2010PropOp28
 70
     1
102
RTVSPost2010Prop29
280
     1
102
RTVSPost2010PropOp29
 70
     1
102
RTVSPost2010Prop30
280
     1
102
RTVSPost2010PropOp30
 70
     1
102
RTVSPost2010Prop31
280
     0
102
RTVSPost2010PropOp31
 70
     1
102
RTVSPost2010Prop32
280
     0
102
RTVSPost2010PropOp32
 70
     1
102
RTVSPost2010Prop33
280
     0
102
RTVSPost2010PropOp33
 70
     1
102
RTVSPost2010Prop34
280
     0
102
RTVSPost2010PropOp34
 70
     1
102
RTVSPost2010Prop35
280
     0
102
RTVSPost2010PropOp35
 70
     1
102
RTVSPost2010Prop36
280
     0
102
RTVSPost2010PropOp36
 70
     1
102
RTVSPost2010Prop37
 90
       50
102
RTVSPost2010PropOp37
 70
     1
102
RTVSPost2010Prop38
140
0.0
102
RTVSPost2010PropOp38
 70
     1
102
RTVSPost2010Prop39
140
1.0
102
RTVSPost2010PropOp39
 70
     1
102
RTVSPost2010Prop40
 90
        0
102
RTVSPost2010PropOp40
 70
     1
102
RTVSPost2010Prop41ColorIndex
 90
       18
102
RTVSPost2010Prop41ColorRGB
 90
        0
102
RTVSPost2010PropOp41
 70
     1
102
RTVSPost2010Prop42
 90
       50
102
RTVSPost2010PropOp42
 70
     1
102
RTVSPost2010Prop43
 90
        3
102
RTVSPost2010PropOp43
 70
     1
102
RTVSPost2010Prop44ColorIndex
 90
        5
102
RTVSPost2010Prop44ColorRGB
 90
      255
102
RTVSPost2010PropOp44
 70
     1
102
RTVSPost2010Prop45
280
     0
102
RTVSPost2010PropOp45
 70
     1
102
RTVSPost2010Prop46
 90
       50
102
RTVSPost2010PropOp46
 70
     1
102
RTVSPost2010Prop47
 90
       50
102
RTVSPost2010PropOp47
 70
     1
102
RTVSPost2010Prop48
 90
       50
102
RTVSPost2010PropOp48
 70
     1
102
RTVSPost2010Prop49
280
     0
102
RTVSPost2010PropOp49
 70
     1
102
RTVSPost2010Prop50
 90
       50
102
RTVSPost2010PropOp50
 70
     1
102
RTVSPost2010Prop51ColorIndex
 90
      256
102
RTVSPost2010Prop51ColorRGB
 90
-16777216
102
RTVSPost2010PropOp51
 70
     0
102
RTVSPost2010Prop52
140
1.0
102
RTVSPost2010PropOp52
 70
     0
102
RTVSPost2010Prop53
 90
        2
102
RTVSPost2010PropOp53
 70
     1
102
RTVSPost2010Prop54
  1
strokes_ogs.tif
102
RTVSPost2010PropOp54
 70
     1
102
RTVSPost2010Prop55
280
     0
102
RTVSPost2010PropOp55
 70
     1
102
RTVSPost2010Prop56
140
1.0
102
RTVSPost2010PropOp56
 70
     1
102
RTVSPost2010Prop57
140
1.0
102
RTVSPost2010PropOp57
 70
     1
  0
XRECORD
  5
1A01
102
{ACAD_REACTORS
330
1A00
102
}
330
1A00
100
AcDbXrecord
280
     1
102
RTVSPost2010Prop28
280
     0
102
RTVSPost2010PropOp28
 70
     1
102
RTVSPost2010Prop29
280
     1
102
RTVSPost2010PropOp29
 70
     1
102
RTVSPost2010Prop30
280
     1
102
RTVSPost2010PropOp30
 70
     1
102
RTVSPost2010Prop31
280
     0
102
RTVSPost2010PropOp31
 70
     1
102
RTVSPost2010Prop32
280
     0
102
RTVSPost2010PropOp32
 70
     1
102
RTVSPost2010Prop33
280
     0
102
RTVSPost2010PropOp33
 70
     1
102
RTVSPost2010Prop34
280
     0
102
RTVSPost2010PropOp34
 70
     1
102
RTVSPost2010Prop35
280
     0
102
RTVSPost2010PropOp35
 70
     1
102
RTVSPost2010Prop36
280
     0
102
RTVSPost2010PropOp36
 70
     1
102
RTVSPost2010Prop37
 90
       50
102
RTVSPost2010PropOp37
 70
     1
102
RTVSPost2010Prop38
140
0.0
102
RTVSPost2010PropOp38
 70
     1
102
RTVSPost2010Prop39
140
1.0
102
RTVSPost2010PropOp39
 70
     1
102
RTVSPost2010Prop40
 90
        0
102
RTVSPost2010PropOp40
 70
     1
102
RTVSPost2010Prop41ColorIndex
 90
       18
102
RTVSPost2010Prop41ColorRGB
 90
        0
102
RTVSPost2010PropOp41
 70
     1
102
RTVSPost2010Prop42
 90
       50
102
RTVSPost2010PropOp42
 70
     1
102
RTVSPost2010Prop43
 90
        3
102
RTVSPost2010PropOp43
 70
     1
102
RTVSPost2010Prop44ColorIndex
 90
        5
102
RTVSPost2010Prop44ColorRGB
 90
      255
102
RTVSPost2010PropOp44
 70
     1
102
RTVSPost2010Prop45
280
     0
102
RTVSPost2010PropOp45
 70
     1
102
RTVSPost2010Prop46
 90
       50
102
RTVSPost2010PropOp46
 70
     1
102
RTVSPost2010Prop47
 90
       50
102
RTVSPost2010PropOp47
 70
     1
102
RTVSPost2010Prop48
 90
       50
102
RTVSPost2010PropOp48
 70
     1
102
RTVSPost2010Prop49
280
     0
102
RTVSPost2010PropOp49
 70
     1
102
RTVSPost2010Prop50
 90
       50
102
RTVSPost2010PropOp50
 70
     1
102
RTVSPost2010Prop51ColorIndex
 90
      256
102
RTVSPost2010Prop51ColorRGB
 90
-16777216
102
RTVSPost2010PropOp51
 70
     0
102
RTVSPost2010Prop52
140
1.0
102
RTVSPost2010PropOp52
 70
     0
102
RTVSPost2010Prop53
 90
        2
102
RTVSPost2010PropOp53
 70
     1
102
RTVSPost2010Prop54
  1
strokes_ogs.tif
102
RTVSPost2010PropOp54
 70
     1
102
RTVSPost2010Prop55
280
     0
102
RTVSPost2010PropOp55
 70
     1
102
RTVSPost2010Prop56
140
1.0
102
RTVSPost2010PropOp56
 70
     1
102
RTVSPost2010Prop57
140
1.0
102
RTVSPost2010PropOp57
 70
     1
  0
ENDSEC
  0
EOF
