  0
SECTION
  2
HEADER
  9
$ACADVER
  1
AC1027
  9
$ACADMAINTVER
 70
   125
  9
$DWGCODEPAGE
  3
ANSI_932
  9
$LASTSAVEDBY
  1
satoe
  9
$REQUIREDVERSIONS
160
                 0
  9
$INSBASE
 10
0.0
 20
0.0
 30
0.0
  9
$EXTMIN
 10
-0.0000002887081791
 20
-0.0000007087007816
 30
0.0
  9
$EXTMAX
 10
839.9999997112917
 20
593.9999992912992
 30
0.0
  9
$LIMMIN
 10
0.0
 20
0.0
  9
$LIMMAX
 10
420.0
 20
297.0
  9
$ORTHOMODE
 70
     0
  9
$REGENMODE
 70
     1
  9
$FILLMODE
 70
     1
  9
$QTEXTMODE
 70
     0
  9
$MIRRTEXT
 70
     0
  9
$LTSCALE
 40
1.0
  9
$ATTMODE
 70
     1
  9
$TEXTSIZE
 40
2.5
  9
$TRACEWID
 40
1.0
  9
$TEXTSTYLE
  7
Standard
  9
$CLAYER
  8
0
  9
$CELTYPE
  6
ByLayer
  9
$CECOLOR
 62
   256
  9
$CELTSCALE
 40
1.0
  9
$DISPSILH
 70
     0
  9
$DIMSCALE
 40
1.0
  9
$DIMASZ
 40
2.5
  9
$DIMEXO
 40
0.625
  9
$DIMDLI
 40
3.75
  9
$DIMRND
 40
0.0
  9
$DIMDLE
 40
0.0
  9
$DIMEXE
 40
1.25
  9
$DIMTP
 40
0.0
  9
$DIMTM
 40
0.0
  9
$DIMTXT
 40
2.5
  9
$DIMCEN
 40
2.5
  9
$DIMTSZ
 40
0.0
  9
$DIMTOL
 70
     0
  9
$DIMLIM
 70
     0
  9
$DIMTIH
 70
     0
  9
$DIMTOH
 70
     0
  9
$DIMSE1
 70
     0
  9
$DIMSE2
 70
     0
  9
$DIMTAD
 70
     1
  9
$DIMZIN
 70
     8
  9
$DIMBLK
  1

  9
$DIMASO
 70
     1
  9
$DIMSHO
 70
     1
  9
$DIMPOST
  1

  9
$DIMAPOST
  1

  9
$DIMALT
 70
     0
  9
$DIMALTD
 70
     3
  9
$DIMALTF
 40
0.03937007874016
  9
$DIMLFAC
 40
1.0
  9
$DIMTOFL
 70
     1
  9
$DIMTVP
 40
0.0
  9
$DIMTIX
 70
     0
  9
$DIMSOXD
 70
     0
  9
$DIMSAH
 70
     0
  9
$DIMBLK1
  1

  9
$DIMBLK2
  1

  9
$DIMSTYLE
  2
ISO-25
  9
$DIMCLRD
 70
     0
  9
$DIMCLRE
 70
     0
  9
$DIMCLRT
 70
     0
  9
$DIMTFAC
 40
1.0
  9
$DIMGAP
 40
0.625
  9
$DIMJUST
 70
     0
  9
$DIMSD1
 70
     0
  9
$DIMSD2
 70
     0
  9
$DIMTOLJ
 70
     0
  9
$DIMTZIN
 70
     8
  9
$DIMALTZ
 70
     0
  9
$DIMALTTZ
 70
     0
  9
$DIMUPT
 70
     0
  9
$DIMDEC
 70
     2
  9
$DIMTDEC
 70
     2
  9
$DIMALTU
 70
     2
  9
$DIMALTTD
 70
     3
  9
$DIMTXSTY
  7
Standard
  9
$DIMAUNIT
 70
     0
  9
$DIMADEC
 70
     0
  9
$DIMALTRND
 40
0.0
  9
$DIMAZIN
 70
     0
  9
$DIMDSEP
 70
    44
  9
$DIMATFIT
 70
     3
  9
$DIMFRAC
 70
     0
  9
$DIMLDRBLK
  1

  9
$DIMLUNIT
 70
     2
  9
$DIMLWD
 70
    -2
  9
$DIMLWE
 70
    -2
  9
$DIMTMOVE
 70
     0
  9
$DIMFXL
 40
1.0
  9
$DIMFXLON
 70
     0
  9
$DIMJOGANG
 40
0.7853981633974483
  9
$DIMTFILL
 70
     0
  9
$DIMTFILLCLR
 70
     0
  9
$DIMARCSYM
 70
     0
  9
$DIMLTYPE
  6

  9
$DIMLTEX1
  6

  9
$DIMLTEX2
  6

  9
$DIMTXTDIRECTION
 70
     0
  9
$LUNITS
 70
     2
  9
$LUPREC
 70
     4
  9
$SKETCHINC
 40
1.0
  9
$FILLETRAD
 40
0.0
  9
$AUNITS
 70
     0
  9
$AUPREC
 70
     0
  9
$MENU
  1
.
  9
$ELEVATION
 40
0.0
  9
$PELEVATION
 40
0.0
  9
$THICKNESS
 40
0.0
  9
$LIMCHECK
 70
     0
  9
$CHAMFERA
 40
0.0
  9
$CHAMFERB
 40
0.0
  9
$CHAMFERC
 40
0.0
  9
$CHAMFERD
 40
0.0
  9
$SKPOLY
 70
     0
  9
$TDCREATE
 40
2457301.619189815
  9
$TDUCREATE
 40
2457301.244197986
  9
$TDUPDATE
 40
2460285.768078704
  9
$TDUUPDATE
 40
2460285.393078704
  9
$TDINDWG
 40
0.1021138310
  9
$TDUSRTIMER
 40
0.1021138079
  9
$USRTIMER
 70
     1
  9
$ANGBASE
 50
0.0
  9
$ANGDIR
 70
     0
  9
$PDMODE
 70
     0
  9
$PDSIZE
 40
0.0
  9
$PLINEWID
 40
0.0
  9
$SPLFRAME
 70
     0
  9
$SPLINETYPE
 70
     6
  9
$SPLINESEGS
 70
     8
  9
$HANDSEED
  5
10C8
  9
$SURFTAB1
 70
     6
  9
$SURFTAB2
 70
     6
  9
$SURFTYPE
 70
     6
  9
$SURFU
 70
     6
  9
$SURFV
 70
     6
  9
$UCSBASE
  2

  9
$UCSNAME
  2

  9
$UCSORG
 10
0.0
 20
0.0
 30
0.0
  9
$UCSXDIR
 10
1.0
 20
0.0
 30
0.0
  9
$UCSYDIR
 10
0.0
 20
1.0
 30
0.0
  9
$UCSORTHOREF
  2

  9
$UCSORTHOVIEW
 70
     0
  9
$UCSORGTOP
 10
0.0
 20
0.0
 30
0.0
  9
$UCSORGBOTTOM
 10
0.0
 20
0.0
 30
0.0
  9
$UCSORGLEFT
 10
0.0
 20
0.0
 30
0.0
  9
$UCSORGRIGHT
 10
0.0
 20
0.0
 30
0.0
  9
$UCSORGFRONT
 10
0.0
 20
0.0
 30
0.0
  9
$UCSORGBACK
 10
0.0
 20
0.0
 30
0.0
  9
$PUCSBASE
  2

  9
$PUCSNAME
  2

  9
$PUCSORG
 10
0.0
 20
0.0
 30
0.0
  9
$PUCSXDIR
 10
1.0
 20
0.0
 30
0.0
  9
$PUCSYDIR
 10
0.0
 20
1.0
 30
0.0
  9
$PUCSORTHOREF
  2

  9
$PUCSORTHOVIEW
 70
     0
  9
$PUCSORGTOP
 10
0.0
 20
0.0
 30
0.0
  9
$PUCSORGBOTTOM
 10
0.0
 20
0.0
 30
0.0
  9
$PUCSORGLEFT
 10
0.0
 20
0.0
 30
0.0
  9
$PUCSORGRIGHT
 10
0.0
 20
0.0
 30
0.0
  9
$PUCSORGFRONT
 10
0.0
 20
0.0
 30
0.0
  9
$PUCSORGBACK
 10
0.0
 20
0.0
 30
0.0
  9
$USERI1
 70
     0
  9
$USERI2
 70
     0
  9
$USERI3
 70
     0
  9
$USERI4
 70
     0
  9
$USERI5
 70
     0
  9
$USERR1
 40
0.0
  9
$USERR2
 40
0.0
  9
$USERR3
 40
0.0
  9
$USERR4
 40
0.0
  9
$USERR5
 40
0.0
  9
$WORLDVIEW
 70
     1
  9
$SHADEDGE
 70
     3
  9
$SHADEDIF
 70
    70
  9
$TILEMODE
 70
     1
  9
$MAXACTVP
 70
    64
  9
$PINSBASE
 10
0.0
 20
0.0
 30
0.0
  9
$PLIMCHECK
 70
     0
  9
$PEXTMIN
 10
-0.0244235986585864
 20
-0.0136049097358182
 30
-0.0000000349181948
  9
$PEXTMAX
 10
420.0012823449579
 20
297.0000959550267
 30
0.0000000814935746
  9
$PLIMMIN
 10
-0.0856539625480082
 20
-0.0120035007920763
  9
$PLIMMAX
 10
419.9143460374521
 20
296.987996499208
  9
$UNITMODE
 70
     0
  9
$VISRETAIN
 70
     1
  9
$PLINEGEN
 70
     0
  9
$PSLTSCALE
 70
     1
  9
$TREEDEPTH
 70
  3020
  9
$CMLSTYLE
  2
Standard
  9
$CMLJUST
 70
     0
  9
$CMLSCALE
 40
20.0
  9
$PROXYGRAPHICS
 70
     1
  9
$MEASUREMENT
 70
     1
  9
$CELWEIGHT
370
    -1
  9
$ENDCAPS
280
     0
  9
$JOINSTYLE
280
     0
  9
$LWDISPLAY
290
     0
  9
$INSUNITS
 70
     4
  9
$HYPERLINKBASE
  1

  9
$STYLESHEET
  1
monochrome.ctb
  9
$XEDIT
290
     1
  9
$CEPSNTYPE
380
     0
  9
$PSTYLEMODE
290
     1
  9
$FINGERPRINTGUID
  2
{DCF6FB66-BDC8-43BF-91FC-A26568E07BE6}
  9
$VERSIONGUID
  2
{6BDAE68F-D3F9-B74B-A37E-04C10FA90552}
  9
$EXTNAMES
290
     1
  9
$PSVPSCALE
 40
0.0
  9
$OLESTARTUP
290
     0
  9
$SORTENTS
280
   127
  9
$INDEXCTL
280
     0
  9
$HIDETEXT
280
     1
  9
$XCLIPFRAME
280
     2
  9
$HALOGAP
280
     0
  9
$OBSCOLOR
 70
   257
  9
$OBSLTYPE
280
     0
  9
$INTERSECTIONDISPLAY
280
     0
  9
$INTERSECTIONCOLOR
 70
   257
  9
$DIMASSOC
280
     2
  9
$PROJECTNAME
  1

  9
$CAMERADISPLAY
290
     0
  9
$LENSLENGTH
 40
50.0
  9
$CAMERAHEIGHT
 40
0.0
  9
$STEPSPERSEC
 40
2.0
  9
$STEPSIZE
 40
6.0
  9
$3DDWFPREC
 40
2.0
  9
$PSOLWIDTH
 40
5.0
  9
$PSOLHEIGHT
 40
80.0
  9
$LOFTANG1
 40
1.570796326794896
  9
$LOFTANG2
 40
1.570796326794896
  9
$LOFTMAG1
 40
0.0
  9
$LOFTMAG2
 40
0.0
  9
$LOFTPARAM
 70
     7
  9
$LOFTNORMALS
280
     1
  9
$LATITUDE
 40
37.795
  9
$LONGITUDE
 40
-122.394
  9
$NORTHDIRECTION
 40
0.0
  9
$TIMEZONE
 70
 -8000
  9
$LIGHTGLYPHDISPLAY
280
     1
  9
$TILEMODELIGHTSYNCH
280
     1
  9
$CMATERIAL
347
EC
  9
$SOLIDHIST
280
     0
  9
$SHOWHIST
280
     1
  9
$DWFFRAME
280
     2
  9
$DGNFRAME
280
     0
  9
$REALWORLDSCALE
290
     1
  9
$INTERFERECOLOR
 62
     1
  9
$INTERFEREOBJVS
345
F9
  9
$INTERFEREVPVS
346
F6
  9
$CSHADOW
280
     0
  9
$SHADOWPLANELOCATION
 40
0.0
  0
ENDSEC
  0
SECTION
  2
CLASSES
  0
CLASS
  1
ACDBDICTIONARYWDFLT
  2
AcDbDictionaryWithDefault
  3
ObjectDBX Classes
 90
        0
 91
        1
280
     0
281
     0
  0
CLASS
  1
DICTIONARYVAR
  2
AcDbDictionaryVar
  3
ObjectDBX Classes
 90
        0
 91
       13
280
     0
281
     0
  0
CLASS
  1
TABLESTYLE
  2
AcDbTableStyle
  3
ObjectDBX Classes
 90
     4095
 91
        1
280
     0
281
     0
  0
CLASS
  1
MATERIAL
  2
AcDbMaterial
  3
ObjectDBX Classes
 90
     1153
 91
        3
280
     0
281
     0
  0
CLASS
  1
VISUALSTYLE
  2
AcDbVisualStyle
  3
ObjectDBX Classes
 90
     4095
 91
       24
280
     0
281
     0
  0
CLASS
  1
SCALE
  2
AcDbScale
  3
ObjectDBX Classes
 90
     1153
 91
       17
280
     0
281
     0
  0
CLASS
  1
MLEADERSTYLE
  2
AcDbMLeaderStyle
  3
ACDB_MLEADERSTYLE_CLASS
 90
     4095
 91
        1
280
     0
281
     0
  0
CLASS
  1
CELLSTYLEMAP
  2
AcDbCellStyleMap
  3
ObjectDBX Classes
 90
     1152
 91
        1
280
     0
281
     0
  0
CLASS
  1
EXACXREFPANELOBJECT
  2
ExAcXREFPanelObject
  3
EXAC_ESW
 90
     1025
 91
        0
280
     0
281
     0
  0
CLASS
  1
NPOCOLLECTION
  2
AcDbImpNonPersistentObjectsCollection
  3
ObjectDBX Classes
 90
     1153
 91
        0
280
     0
281
     0
  0
CLASS
  1
LAYER_INDEX
  2
AcDbLayerIndex
  3
ObjectDBX Classes
 90
        0
 91
        0
280
     0
281
     0
  0
CLASS
  1
SPATIAL_INDEX
  2
AcDbSpatialIndex
  3
ObjectDBX Classes
 90
        0
 91
        0
280
     0
281
     0
  0
CLASS
  1
IDBUFFER
  2
AcDbIdBuffer
  3
ObjectDBX Classes
 90
        0
 91
        0
280
     0
281
     0
  0
CLASS
  1
ACDBSECTIONVIEWSTYLE
  2
AcDbSectionViewStyle
  3
ObjectDBX Classes
 90
     1025
 91
        1
280
     0
281
     0
  0
CLASS
  1
ACDBDETAILVIEWSTYLE
  2
AcDbDetailViewStyle
  3
ObjectDBX Classes
 90
     1025
 91
        1
280
     0
281
     0
  0
CLASS
  1
SORTENTSTABLE
  2
AcDbSortentsTable
  3
ObjectDBX Classes
 90
        0
 91
        0
280
     0
281
     0
  0
CLASS
  1
RAPIDRTRENDERSETTINGS
  2
AcDbRapidRTRenderSettings
  3
ObjectDBX Classes
 90
     1024
 91
        7
280
     0
281
     0
  0
CLASS
  1
MENTALRAYRENDERSETTINGS
  2
AcDbMentalRayRenderSettings
  3
SCENEOE
 90
     1024
 91
        1
280
     0
281
     0
  0
ENDSEC
  0
SECTION
  2
TABLES
  0
TABLE
  2
VPORT
  5
8
102
{ACAD_XDICTIONARY
360
5E7
102
}
330
0
100
AcDbSymbolTable
 70
     1
1001
ACAD
1000
DbSaveVer
1071
      278
  0
VPORT
  5
EA
330
8
100
AcDbSymbolTableRecord
100
AcDbViewportTableRecord
  2
*Active
 70
     0
 10
0.0
 20
0.0
 11
1.0
 21
1.0
 12
420.0000016670693
 22
297.0000006743133
 13
0.0
 23
0.0
 14
10.0
 24
10.0
 15
10.0
 25
10.0
 16
0.0
 26
0.0
 36
1.0
 17
0.0
 27
0.0
 37
0.0
 40
599.8317305402486
 41
2.472312703583062
 42
50.0
 43
0.0
 44
0.0
 50
0.0
 51
0.0
 71
     0
 72
   100
 73
     1
 74
     3
 75
     0
 76
     1
 77
     0
 78
     0
281
     0
 65
     1
110
0.0
120
0.0
130
0.0
111
1.0
121
0.0
131
0.0
112
0.0
122
1.0
132
0.0
 79
     0
146
0.0
348
F5
 60
     3
 61
     5
292
     1
282
     1
141
0.0
142
0.0
 63
   250
421
  3355443
1001
ACAD_NAV_VCDISPLAY
1070
     3
  0
ENDTAB
  0
TABLE
  2
LTYPE
  5
5
330
0
100
AcDbSymbolTable
 70
     4
  0
LTYPE
  5
14
330
5
100
AcDbSymbolTableRecord
100
AcDbLinetypeTableRecord
  2
ByBlock
 70
     0
  3

 72
    65
 73
     0
 40
0.0
  0
LTYPE
  5
15
330
5
100
AcDbSymbolTableRecord
100
AcDbLinetypeTableRecord
  2
ByLayer
 70
     0
  3

 72
    65
 73
     0
 40
0.0
  0
LTYPE
  5
16
330
5
100
AcDbSymbolTableRecord
100
AcDbLinetypeTableRecord
  2
Continuous
 70
     0
  3
Solid line
 72
    65
 73
     0
 40
0.0
  0
LTYPE
  5
242
330
5
100
AcDbSymbolTableRecord
100
AcDbLinetypeTableRecord
  2
DASHED
 70
     0
  3
Dashed __ __ __ __ __ __ __ __ __ __ __ __ __ _
 72
    65
 73
     2
 40
19.05
 49
12.7
 74
     0
 49
-6.349999999999999
 74
     0
  0
LTYPE
  5
243
330
5
100
AcDbSymbolTableRecord
100
AcDbLinetypeTableRecord
  2
DASHED2
 70
     0
  3
Dashed (.5x) _ _ _ _ _ _ _ _ _ _ _ _ _ _ _ _ _
 72
    65
 73
     2
 40
9.524999999999998
 49
6.349999999999999
 74
     0
 49
-3.174999999999999
 74
     0
  0
LTYPE
  5
538
330
5
100
AcDbSymbolTableRecord
100
AcDbLinetypeTableRecord
  2
Amconstr
 70
     0
  3
_______________________
 72
    65
 73
     2
 40
9999.0
 49
9999.0
 74
     0
 49
0.0
 74
     0
  0
ENDTAB
  0
TABLE
  2
LAYER
  5
2
102
{ACAD_XDICTIONARY
360
1FF
102
}
330
0
100
AcDbSymbolTable
 70
     6
  0
LAYER
  5
10
102
{ACAD_XDICTIONARY
360
13C
102
}
330
2
100
AcDbSymbolTableRecord
100
AcDbLayerTableRecord
  2
0
 70
     0
 62
     7
  6
Continuous
370
    -3
390
F
347
EE
348
0
  0
LAYER
  5
244
102
{ACAD_XDICTIONARY
360
245
102
}
330
2
100
AcDbSymbolTableRecord
100
AcDbLayerTableRecord
  2
WAKU
 70
     0
 62
     7
  6
Continuous
370
    -3
390
F
347
EE
348
0
  0
LAYER
  5
539
102
{ACAD_XDICTIONARY
360
53A
102
}
330
2
100
AcDbSymbolTableRecord
100
AcDbLayerTableRecord
  2
AM_CL
 70
     0
 62
    -1
  6
Amconstr
370
    25
390
F
347
EE
348
0
  0
LAYER
  5
63F
102
{ACAD_XDICTIONARY
360
640
102
}
330
2
100
AcDbSymbolTableRecord
100
AcDbLayerTableRecord
  2
役物
 70
     0
 62
     3
  6
Continuous
370
    -3
390
651
347
EE
348
0
  0
LAYER
  5
641
102
{ACAD_XDICTIONARY
360
642
102
}
330
2
100
AcDbSymbolTableRecord
100
AcDbLayerTableRecord
  2
本体
 70
     0
 62
     4
  6
Continuous
370
    -3
390
F
347
EE
348
0
  0
LAYER
  5
647
102
{ACAD_XDICTIONARY
360
648
102
}
330
2
100
AcDbSymbolTableRecord
100
AcDbLayerTableRecord
  2
文字
 70
     0
 62
     7
  6
Continuous
370
    -3
390
F
347
EE
348
0
  0
ENDTAB
  0
TABLE
  2
STYLE
  5
3
330
0
100
AcDbSymbolTable
 70
     3
  0
STYLE
  5
11
330
3
100
AcDbSymbolTableRecord
100
AcDbTextStyleTableRecord
  2
Standard
 70
     0
 40
0.0
 41
1.0
 50
0.0
 71
     0
 42
2.5
  3
txt.shx
  4
extfont2.shx
  0
STYLE
  5
246
330
3
100
AcDbSymbolTableRecord
100
AcDbTextStyleTableRecord
  2
WAKU
 70
     0
 40
5.0
 41
1.0
 50
0.0
 71
     0
 42
5.0
  3
MS Gothic.ttf
  4

1001
ACAD
1000
MS Gothic
1071
    32817
  0
ENDTAB
  0
TABLE
  2
VIEW
  5
6
330
0
100
AcDbSymbolTable
 70
     3
  0
ENDTAB
  0
TABLE
  2
UCS
  5
7
330
0
100
AcDbSymbolTable
 70
     0
  0
ENDTAB
  0
TABLE
  2
APPID
  5
9
330
0
100
AcDbSymbolTable
 70
    11
  0
APPID
  5
12
330
9
100
AcDbSymbolTableRecord
100
AcDbRegAppTableRecord
  2
ACAD
 70
     0
  0
APPID
  5
9E
330
9
100
AcDbSymbolTableRecord
100
AcDbRegAppTableRecord
  2
ACAD_PSEXT
 70
     0
  0
APPID
  5
133
330
9
100
AcDbSymbolTableRecord
100
AcDbRegAppTableRecord
  2
AcadAnnoPO
 70
     0
  0
APPID
  5
134
330
9
100
AcDbSymbolTableRecord
100
AcDbRegAppTableRecord
  2
AcadAnnotative
 70
     0
  0
APPID
  5
135
330
9
100
AcDbSymbolTableRecord
100
AcDbRegAppTableRecord
  2
ACAD_DSTYLE_DIMJAG
 70
     0
  0
APPID
  5
136
330
9
100
AcDbSymbolTableRecord
100
AcDbRegAppTableRecord
  2
ACAD_DSTYLE_DIMTALN
 70
     0
  0
APPID
  5
165
330
9
100
AcDbSymbolTableRecord
100
AcDbRegAppTableRecord
  2
ACAD_MLEADERVER
 70
     0
  0
APPID
  5
217
330
9
100
AcDbSymbolTableRecord
100
AcDbRegAppTableRecord
  2
ACAD_NAV_VCDISPLAY
 70
     0
  0
APPID
  5
64F
330
9
100
AcDbSymbolTableRecord
100
AcDbRegAppTableRecord
  2
GradientColor1ACI
 70
     0
  0
APPID
  5
650
330
9
100
AcDbSymbolTableRecord
100
AcDbRegAppTableRecord
  2
GradientColor2ACI
 70
     0
  0
APPID
  5
AFA
330
9
100
AcDbSymbolTableRecord
100
AcDbRegAppTableRecord
  2
ACAD_EXEMPT_FROM_CAD_STANDARDS
 70
     0
  0
ENDTAB
  0
TABLE
  2
DIMSTYLE
  5
A
330
0
100
AcDbSymbolTable
 70
     2
100
AcDbDimStyleTable
 71
     1
340
27
  0
DIMSTYLE
105
27
330
A
100
AcDbSymbolTableRecord
100
AcDbDimStyleTableRecord
  2
ISO-25
 70
     0
 41
2.5
 42
0.625
 43
3.75
 44
1.25
 73
     0
 74
     0
 77
     1
 78
     8
140
2.5
141
2.5
143
0.03937007874016
147
0.625
171
     3
172
     1
271
     2
272
     2
274
     3
278
    44
283
     0
284
     8
340
11
  0
ENDTAB
  0
TABLE
  2
BLOCK_RECORD
  5
1
330
0
100
AcDbSymbolTable
 70
     1
  0
BLOCK_RECORD
  5
1F
102
{ACAD_XDICTIONARY
360
1CE
102
}
330
1
100
AcDbSymbolTableRecord
100
AcDbBlockTableRecord
  2
*Model_Space
340
22
 70
     0
280
     1
281
     0
  0
BLOCK_RECORD
  5
D2
330
1
100
AcDbSymbolTableRecord
100
AcDbBlockTableRecord
  2
*Paper_Space
340
D3
 70
     0
280
     1
281
     0
  0
ENDTAB
  0
ENDSEC
  0
SECTION
  2
BLOCKS
  0
BLOCK
  5
20
330
1F
100
AcDbEntity
  8
0
100
AcDbBlockBegin
  2
*Model_Space
 70
     0
 10
0.0
 20
0.0
 30
0.0
  3
*Model_Space
  1

  0
ENDBLK
  5
21
330
1F
100
AcDbEntity
  8
0
100
AcDbBlockEnd
  0
BLOCK
  5
D4
330
D2
100
AcDbEntity
 67
     1
  8
0
100
AcDbBlockBegin
  2
*Paper_Space
 70
     0
 10
0.0
 20
0.0
 30
0.0
  3
*Paper_Space
  1

  0
ENDBLK
  5
D5
330
D2
100
AcDbEntity
 67
     1
  8
0
100
AcDbBlockEnd
  0
ENDSEC
  0
SECTION
  2
ENTITIES
  0
MTEXT
  5
3BA
330
1F
100
AcDbEntity
  8
WAKU
100
AcDbMText
 10
133.8849112072821
 20
35.21985575918302
 30
0.0
 40
5.0
 41
190.5002997985425
 46
0.0
 71
     1
 72
     5
  1
アイジールーフシリーズ参考ディテール
  7
WAKU
 73
     1
 44
1.0
  0
LINE
  5
3BB
330
1F
100
AcDbEntity
  8
WAKU
100
AcDbLine
 10
127.9999997112918
 20
39.99999929129922
 30
0.0
 11
127.9999997112918
 21
23.99999929129945
 31
0.0
  0
LINE
  5
3BC
330
1F
100
AcDbEntity
  8
WAKU
100
AcDbLine
 10
31.99999971129182
 20
23.99999929129945
 30
0.0
 11
127.9999997112918
 21
23.99999929129945
 31
0.0
  0
LINE
  5
3BD
330
1F
100
AcDbEntity
  8
WAKU
100
AcDbLine
 10
31.99999971129182
 20
39.99999929129922
 30
0.0
 11
127.9999997112918
 21
39.99999929129922
 31
0.0
  0
LINE
  5
3BE
330
1F
100
AcDbEntity
  8
WAKU
100
AcDbLine
 10
129.9999997112918
 20
41.99999929129922
 30
0.0
 11
129.9999997112918
 21
21.99999929129945
 31
0.0
  0
LINE
  5
3BF
330
1F
100
AcDbEntity
  8
WAKU
100
AcDbLine
 10
29.99999971129182
 20
41.99999929129922
 30
0.0
 11
809.9999997112918
 21
41.99999929129922
 31
0.0
  0
LINE
  5
3C0
330
1F
100
AcDbEntity
  8
WAKU
100
AcDbLine
 10
29.99999971129182
 20
21.99999929129945
 30
0.0
 11
809.9999997112918
 21
21.99999929129945
 31
0.0
  0
MTEXT
  5
3C1
330
1F
100
AcDbEntity
  8
WAKU
100
AcDbMText
 10
40.90853043579772
 20
35.53439598740943
 30
0.0
 40
6.0
 41
190.5002997985425
 46
0.0
 71
     1
 72
     5
  1
アイジー工業株式会社
  7
WAKU
 73
     1
 44
1.0
  0
LINE
  5
3C2
330
1F
100
AcDbEntity
  8
WAKU
100
AcDbLine
 10
29.99999971129182
 20
571.9999992912992
 30
0.0
 11
29.99999971129182
 21
21.99999929129945
 31
0.0
  0
LINE
  5
3C3
330
1F
100
AcDbEntity
  8
WAKU
100
AcDbLine
 10
29.99999971129182
 20
41.99999929129922
 30
0.0
 11
29.99999971129182
 21
21.99999929129945
 31
0.0
  0
LINE
  5
3C4
330
1F
100
AcDbEntity
  8
WAKU
100
AcDbLine
 10
31.99999971129182
 20
39.99999929129922
 30
0.0
 11
31.99999971129182
 21
23.99999929129945
 31
0.0
  0
MTEXT
  5
3C5
330
1F
100
AcDbEntity
  8
WAKU
100
AcDbMText
 10
276.818617573821
 20
39.72724776496057
 30
0.0
 40
5.0
 41
10.0
 46
0.0
 71
     1
 72
     5
  1
名称
  7
WAKU
 73
     1
 44
1.0
  0
LINE
  5
3C6
330
1F
100
AcDbEntity
  8
WAKU
100
AcDbLine
 10
284.9999997112918
 20
41.99999929129922
 30
0.0
 11
284.9999997112918
 21
21.99999929129945
 31
0.0
  0
LINE
  5
3C7
330
1F
100
AcDbEntity
  8
WAKU
100
AcDbLine
 10
274.9999997112918
 20
41.99999929129922
 30
0.0
 11
274.9999997112918
 21
21.99999929129945
 31
0.0
  0
LINE
  5
3C8
330
1F
100
AcDbEntity
  8
WAKU
100
AcDbLine
 10
511.3090120415344
 20
41.99999929129922
 30
0.0
 11
511.3090120415344
 21
21.99999929129945
 31
0.0
  0
MTEXT
  5
3C9
330
1F
100
AcDbEntity
  8
WAKU
100
AcDbMText
 10
503.1276299040637
 20
39.72724776496057
 30
0.0
 40
5.0
 41
10.0
 46
26.01112855658425
 71
     1
 72
     5
  1
単位
  7
WAKU
 73
     1
 44
1.0
1001
ACAD
1000
ACAD_MTEXT_DEFINED_HEIGHT_BEGIN
1070
    46
1040
26.01112855658425
1000
ACAD_MTEXT_DEFINED_HEIGHT_END
  0
MTEXT
  5
3CA
330
1F
100
AcDbEntity
  8
WAKU
100
AcDbMText
 10
527.6764589568584
 20
35.21985575918302
 30
0.0
 40
5.0
 41
190.5002997985425
 46
0.0
 71
     1
 72
     5
  1
mm
  7
WAKU
 73
     1
 44
1.0
  0
LINE
  5
3CB
330
1F
100
AcDbEntity
  8
WAKU
100
AcDbLine
 10
501.3090120415345
 20
21.99999929129945
 30
0.0
 11
501.3090120415345
 21
41.99999929129922
 31
0.0
  0
MTEXT
  5
3CC
330
1F
100
AcDbEntity
  8
WAKU
100
AcDbMText
 10
553.1276299040637
 20
39.72724776496057
 30
0.0
 40
5.0
 41
10.0
 46
0.0
 71
     1
 72
     5
  1
縮尺
  7
WAKU
 73
     1
 44
1.0
  0
LINE
  5
3CD
330
1F
100
AcDbEntity
  8
WAKU
100
AcDbLine
 10
561.3090120415344
 20
41.99999929129922
 30
0.0
 11
561.3090120415344
 21
21.99999929129945
 31
0.0
  0
LINE
  5
3CE
330
1F
100
AcDbEntity
  8
WAKU
100
AcDbLine
 10
551.3090120415345
 20
41.99999929129922
 30
0.0
 11
551.3090120415345
 21
21.99999929129945
 31
0.0
  0
LINE
  5
3CF
330
1F
100
AcDbEntity
  8
WAKU
  6
DASHED2
 48
0.5
100
AcDbLine
 10
701.3090120415345
 20
31.99999929129922
 30
0.0
 11
809.9999997112918
 21
31.99999929129922
 31
0.0
  0
MTEXT
  5
3D0
330
1F
100
AcDbEntity
  8
WAKU
100
AcDbMText
 10
693.1276299040637
 20
39.72724776496057
 30
0.0
 40
5.0
 41
10.0
 46
0.0
 71
     1
 72
     5
  1
特記
  7
WAKU
 73
     1
 44
1.0
  0
LINE
  5
3D1
330
1F
100
AcDbEntity
  8
WAKU
100
AcDbLine
 10
701.3090120415345
 20
41.99999929129922
 30
0.0
 11
701.3090120415345
 21
21.99999929129945
 31
0.0
  0
LINE
  5
3D2
330
1F
100
AcDbEntity
  8
WAKU
100
AcDbLine
 10
691.3090120415345
 20
41.99999929129922
 30
0.0
 11
691.3090120415345
 21
21.99999929129945
 31
0.0
  0
MTEXT
  5
3D3
330
1F
100
AcDbEntity
  8
WAKU
100
AcDbMText
 10
635.6335526105395
 20
35.21985575918302
 30
0.0
 40
5.0
 41
190.5002997985425
 46
0.0
 71
     1
 72
     5
  1
wrp007-07-01
  7
WAKU
 73
     1
 44
1.0
  0
LINE
  5
3D4
330
1F
100
AcDbEntity
  8
WAKU
100
AcDbLine
 10
611.3090120415344
 20
41.99999929129922
 30
0.0
 11
611.3090120415344
 21
21.99999929129945
 31
0.0
  0
LINE
  5
3D5
330
1F
100
AcDbEntity
  8
WAKU
100
AcDbLine
 10
621.3090120415345
 20
41.99999929129922
 30
0.0
 11
621.3090120415345
 21
21.99999929129945
 31
0.0
  0
MTEXT
  5
3D6
330
1F
100
AcDbEntity
  8
WAKU
100
AcDbMText
 10
613.1276299040637
 20
39.72724776496057
 30
0.0
 40
5.0
 41
10.0
 46
0.0
 71
     1
 72
     5
  1
図番
  7
WAKU
 73
     1
 44
1.0
  0
MTEXT
  5
3D7
330
1F
100
AcDbEntity
  8
WAKU
100
AcDbMText
 10
570.6335526105394
 20
35.21985575918302
 30
0.0
 40
5.0
 41
190.5002997985425
 46
0.0
 71
     1
 72
     5
  1
1/2（A3）
  7
WAKU
 73
     1
 44
1.0
  0
LINE
  5
3D8
330
1F
100
AcDbEntity
  8
WAKU
100
AcDbLine
 10
809.9999997112918
 20
21.99999929129945
 30
0.0
 11
809.9999997112918
 21
571.9999992912992
 31
0.0
  0
LINE
  5
3D9
330
1F
100
AcDbEntity
  8
WAKU
100
AcDbLine
 10
809.9999997112918
 20
571.9999992912992
 30
0.0
 11
29.99999971129182
 21
571.9999992912992
 31
0.0
  0
MTEXT
  5
523
330
1F
100
AcDbEntity
  8
WAKU
100
AcDbMText
 10
293.7861823457974
 20
39.85062828628925
 30
0.0
 40
5.0
 41
202.3305186377118
 46
19.99999999999977
 71
     1
 72
     5
  1
アイジールーフ　スーパーガルテクト　改修(合板下地工法(カバー))\P流れと平行な壁01(改修用壁押えD(Ⅱ)、L型捨板、段付面戸D)
  7
WAKU
 73
     1
 44
1.0
1001
ACAD
1000
ACAD_MTEXT_DEFINED_HEIGHT_BEGIN
1070
    46
1040
19.99999999999977
1000
ACAD_MTEXT_DEFINED_HEIGHT_END
  0
LWPOLYLINE
  5
547
330
1F
100
AcDbEntity
  8
AM_CL
100
AcDbPolyline
 90
        4
 70
     1
 43
0.0
 10
-0.0000002887081791
 20
-0.0000007087007816
 10
839.9999997112917
 20
-0.0000007087007816
 10
839.9999997112917
 20
593.9999992912992
 10
-0.0000002887081791
 20
593.9999992912992
  0
LINE
  5
8A7
330
1F
100
AcDbEntity
  8
文字
100
AcDbLine
 10
476.2182488386099
 20
352.3500191322991
 30
0.0
 11
469.2182488386119
 21
352.3500191322991
 31
0.0
  0
LINE
  5
8A8
330
1F
100
AcDbEntity
  8
文字
 48
0.2499999816274026
100
AcDbLine
 10
442.5494082933546
 20
364.3495702743197
 30
0.0
 11
435.5494082933566
 21
364.3495702743197
 31
0.0
  0
LINE
  5
8A9
330
1F
100
AcDbEntity
  8
文字
 48
0.2499999816274026
100
AcDbLine
 10
392.0961109167458
 20
289.0862514616346
 30
0.0
 11
435.5494082933566
 21
364.3495702743197
 31
0.0
  0
TEXT
  5
8AA
330
1F
100
AcDbEntity
  8
0
100
AcDbText
 10
443.7274475263682
 20
361.0919393650996
 30
0.0
 40
8.0
  1
L型捨板
100
AcDbText
  0
TEXT
  5
8AB
330
1F
100
AcDbEntity
  8
0
100
AcDbText
 10
411.6227987926881
 20
374.7302809211923
 30
0.0
 40
8.0
  1
段付面戸Ｄ
100
AcDbText
  0
LINE
  5
8AC
330
1F
100
AcDbEntity
  8
文字
100
AcDbLine
 10
410.0576214462003
 20
378.3226152624708
 30
0.0
 11
403.0576214462023
 21
378.3226152624708
 31
0.0
  0
LINE
  5
8AD
330
1F
100
AcDbEntity
  8
文字
100
AcDbLine
 10
310.1822353731411
 20
391.2970511089812
 30
0.0
 11
303.1822353731432
 21
391.2970511089812
 31
0.0
  0
TEXT
  5
8AE
330
1F
100
AcDbEntity
  8
0
100
AcDbText
 10
290.2447561238641
 20
424.2361838912805
 30
0.0
 40
8.0
  1
捨てシーリング
100
AcDbText
  0
TEXT
  5
8AF
330
1F
100
AcDbEntity
  8
0
100
AcDbText
 10
309.6821422798753
 20
387.3518846772844
 30
0.0
 40
8.0
  1
改修用壁押えＤ(Ⅱ)
100
AcDbText
  0
TEXT
  5
8B0
330
1F
100
AcDbEntity
  8
0
100
AcDbText
 10
294.0369900550333
 20
401.6932709067171
 30
0.0
 40
8.0
  1
防水テープＤ
100
AcDbText
  0
LINE
  5
8B1
330
1F
100
AcDbEntity
  8
文字
100
AcDbLine
 10
284.3986843136843
 20
442.5029877908674
 30
0.0
 11
277.3986843136863
 21
442.5029877908674
 31
0.0
  0
LINE
  5
8B2
330
1F
100
AcDbEntity
  8
文字
100
AcDbLine
 10
277.3986843136863
 20
442.5029877908674
 30
0.0
 11
257.5384843306897
 21
408.1041123718401
 31
0.0
  0
TEXT
  5
8B3
330
1F
100
AcDbEntity
  8
0
100
AcDbText
 10
286.2268409145979
 20
438.9647360730351
 30
0.0
 40
8.0
  1
シーリング材
100
AcDbText
  0
LINE
  5
8B4
330
1F
100
AcDbEntity
  8
0
 62
     2
100
AcDbLine
 10
451.5052257916929
 20
289.0862514616346
 30
0.0
 11
451.5052257916929
 21
229.5862514616364
 31
0.0
  0
LINE
  5
8B5
330
1F
100
AcDbEntity
  8
0
100
AcDbLine
 10
425.4886370792528
 20
289.0862507597411
 30
0.0
 11
396.2637938233704
 21
289.0862507597411
 31
0.0
  0
LINE
  5
8B6
330
1F
100
AcDbEntity
  8
0
 62
     2
100
AcDbLine
 10
454.5552257916913
 20
289.0862514616346
 30
0.0
 11
454.5552257916913
 21
229.5862514616386
 31
0.0
  0
LINE
  5
8B7
330
1F
100
AcDbEntity
  8
0
 62
     2
100
AcDbLine
 10
449.530225791691
 20
290.3862514616356
 30
0.0
 11
449.530225791691
 21
289.0862514616346
 31
0.0
  0
LINE
  5
8B8
330
1F
100
AcDbEntity
  8
0
 62
     2
100
AcDbLine
 10
449.530225791691
 20
289.0862514616346
 30
0.0
 11
456.5302257916889
 21
289.0862514616346
 31
0.0
  0
LINE
  5
8B9
330
1F
100
AcDbEntity
  8
0
 62
     2
100
AcDbLine
 10
453.0302257916899
 20
224.0862514616393
 30
0.0
 11
451.5052257916929
 21
229.5862514616386
 31
0.0
  0
LINE
  5
8BA
330
1F
100
AcDbEntity
  8
0
 62
     2
100
AcDbLine
 10
449.530225791691
 20
290.3862514616356
 30
0.0
 11
456.5302257916889
 21
290.3862514616356
 31
0.0
  0
LINE
  5
8BB
330
1F
100
AcDbEntity
  8
0
 62
     2
100
AcDbLine
 10
456.5302257916889
 20
290.3862514616356
 30
0.0
 11
456.5302257916889
 21
289.0862514616346
 31
0.0
  0
LINE
  5
8BC
330
1F
100
AcDbEntity
  8
0
 62
     2
100
AcDbLine
 10
453.0302257916899
 20
224.0862514616393
 30
0.0
 11
454.5552257916913
 21
229.5862514616386
 31
0.0
  0
ARC
  5
8BD
330
1F
100
AcDbEntity
  8
0
100
AcDbCircle
 10
359.0599866642049
 20
307.236250759741
 30
0.0
 40
1.149999999999956
100
AcDbArc
 50
180.0
 51
270.0
  0
ARC
  5
8BE
330
1F
100
AcDbEntity
  8
0
100
AcDbCircle
 10
359.0599866642049
 20
307.236250759741
 30
0.0
 40
1.499999999999943
100
AcDbArc
 50
180.0
 51
270.0
  0
LINE
  5
8BF
330
1F
100
AcDbEntity
  8
0
100
AcDbLine
 10
357.9099866642071
 20
320.1443354139475
 30
0.0
 11
357.5599866642085
 21
320.1443354139475
 31
0.0
  0
LINE
  5
8C0
330
1F
100
AcDbEntity
  8
0
100
AcDbLine
 10
357.5599866642085
 20
307.236250759741
 30
0.0
 11
357.5599866642085
 21
320.1443354139475
 31
0.0
  0
LINE
  5
8C1
330
1F
100
AcDbEntity
  8
0
 62
     4
100
AcDbLine
 10
357.3599866642041
 20
288.7362514616338
 30
0.0
 11
439.0389497118579
 21
288.7362514616338
 31
0.0
  0
LINE
  5
8C2
330
1F
100
AcDbEntity
  8
0
 62
     6
100
AcDbLine
 10
443.0308181989359
 20
288.7362514616338
 30
0.0
 11
463.0296333844437
 21
288.7362514616338
 31
0.0
  0
LINE
  5
8C3
330
1F
100
AcDbEntity
  8
本体
100
AcDbLine
 10
686.0861281578475
 20
289.0862507597411
 30
0.0
 11
443.0308181989359
 21
289.0862507597411
 31
0.0
  0
LINE
  5
8C4
330
1F
100
AcDbEntity
  8
0
 62
     6
100
AcDbLine
 10
436.9324073860439
 20
290.6751208144022
 30
0.0
 11
437.1074073860431
 21
290.9782298144013
 31
0.0
  0
LINE
  5
8C5
330
1F
100
AcDbEntity
  8
0
 62
     6
100
AcDbLine
 10
463.0296333844437
 20
288.7362514616338
 30
0.0
 11
463.0296333844437
 21
289.0862507597411
 31
0.0
  0
LINE
  5
8C6
330
1F
100
AcDbEntity
  8
0
 62
     6
100
AcDbLine
 10
463.0296333844437
 20
289.0862514616346
 30
0.0
 11
443.0308181989359
 21
289.0862514616346
 31
0.0
  0
LINE
  5
8C7
330
1F
100
AcDbEntity
  8
0
 62
     6
100
AcDbLine
 10
437.1074073860431
 20
290.9782298144013
 30
0.0
 11
431.4132900850479
 21
294.2657299709309
 31
0.0
  0
ARC
  5
8C8
330
1F
100
AcDbEntity
  8
0
 62
     6
100
AcDbCircle
 10
431.6348202355454
 20
294.6494314470043
 30
0.0
 40
0.443060300998827
100
AcDbArc
 50
60.00000000002592
 51
240.0000000000259
  0
LINE
  5
8C9
330
1F
100
AcDbEntity
  8
0
 62
     6
100
AcDbLine
 10
436.9324073860439
 20
290.6751208144022
 30
0.0
 11
431.2382900379914
 21
293.9626209981008
 31
0.0
  0
LINE
  5
8CA
330
1F
100
AcDbEntity
  8
0
 62
     6
100
AcDbLine
 10
431.8563503860475
 20
295.0331329230777
 30
0.0
 11
442.5308181989387
 21
288.8702260578488
 31
0.0
  0
ARC
  5
8CB
330
1F
100
AcDbEntity
  8
0
 62
     6
100
AcDbCircle
 10
443.0308181989359
 20
289.7362514616351
 30
0.0
 40
0.6499999999999754
100
AcDbArc
 50
239.9999999999704
 51
270.0
  0
ARC
  5
8CC
330
1F
100
AcDbEntity
  8
0
 62
     6
100
AcDbCircle
 10
431.6348202120168
 20
294.6494314062499
 30
0.0
 40
0.7930603480561651
100
AcDbArc
 50
59.99999999997044
 51
239.9999999999704
  0
LINE
  5
8CD
330
1F
100
AcDbEntity
  8
0
 62
     6
100
AcDbLine
 10
432.0313503860468
 20
295.3362418144012
 30
0.0
 11
442.7058181989334
 21
289.1733349491746
 31
0.0
  0
LINE
  5
8CE
330
1F
100
AcDbEntity
  8
0
 62
     4
100
AcDbLine
 10
431.539816406999
 20
294.8973722996822
 30
0.0
 11
431.3648162676288
 21
294.594263058285
 31
0.0
  0
LINE
  5
8CF
330
1F
100
AcDbEntity
  8
0
 62
     4
100
AcDbLine
 10
431.3648164069998
 20
294.5942632996808
 30
0.0
 11
439.2889497118587
 21
290.0192634616327
 31
0.0
  0
LINE
  5
8D0
330
1F
100
AcDbEntity
  8
0
 62
     4
100
AcDbLine
 10
431.539816406999
 20
294.8973722996822
 30
0.0
 11
439.463949711858
 21
290.322372461634
 31
0.0
  0
ARC
  5
8D1
330
1F
100
AcDbEntity
  8
0
 62
     4
100
AcDbCircle
 10
439.0389497118579
 20
289.5862514616341
 30
0.0
 40
0.8499999999999678
100
AcDbArc
 50
270.0
 51
59.99999999997044
  0
LINE
  5
8D2
330
1F
100
AcDbEntity
  8
0
 62
     4
100
AcDbLine
 10
357.3599866642041
 20
289.0862514616346
 30
0.0
 11
439.0389497118579
 21
289.0862514616346
 31
0.0
  0
LINE
  5
8D3
330
1F
100
AcDbEntity
  8
0
 62
     4
100
AcDbLine
 10
357.2099866642099
 20
311.0862514616341
 30
0.0
 11
357.5599866642085
 21
311.0862514616341
 31
0.0
  0
ARC
  5
8D4
330
1F
100
AcDbEntity
  8
0
 62
     4
100
AcDbCircle
 10
357.3599866642041
 20
289.5862514616341
 30
0.0
 40
0.4999999999999812
100
AcDbArc
 50
180.0
 51
270.0
  0
ARC
  5
8D5
330
1F
100
AcDbEntity
  8
0
 62
     4
100
AcDbCircle
 10
357.3599866642041
 20
289.5862514616341
 30
0.0
 40
0.8499999999999678
100
AcDbArc
 50
180.0
 51
270.0
  0
LINE
  5
8D6
330
1F
100
AcDbEntity
  8
0
 62
     4
100
AcDbLine
 10
356.5099866642038
 20
318.5612514616333
 30
0.0
 11
356.5099866642038
 21
289.5862514616341
 31
0.0
  0
LINE
  5
8D7
330
1F
100
AcDbEntity
  8
0
 62
     4
100
AcDbLine
 10
357.5599866642085
 20
318.5612514616333
 30
0.0
 11
357.5599866642085
 21
311.0862514616341
 31
0.0
  0
LINE
  5
8D8
330
1F
100
AcDbEntity
  8
0
 62
     4
100
AcDbLine
 10
356.8599866642023
 20
318.5612514616333
 30
0.0
 11
356.8599866642023
 21
289.5862514616341
 31
0.0
  0
LINE
  5
8D9
330
1F
100
AcDbEntity
  8
0
 62
     4
100
AcDbLine
 10
357.2099866642009
 20
318.5612514616333
 30
0.0
 11
357.2099866642009
 21
311.0862514616341
 31
0.0
  0
ARC
  5
8DA
330
1F
100
AcDbEntity
  8
0
 62
     4
100
AcDbCircle
 10
357.0349866642016
 20
318.5612514616333
 30
0.0
 40
0.5250000000000711
100
AcDbArc
 50
0.0
 51
180.0
  0
TEXT
  5
8DB
330
1F
100
AcDbEntity
  8
0
100
AcDbText
 10
399.9911634706559
 20
188.7906785747285
 30
0.0
 40
8.0
  1
既存下葺き材
100
AcDbText
  0
TEXT
  5
8DC
330
1F
100
AcDbEntity
  8
0
100
AcDbText
 10
583.2372279497285
 20
321.3658861515706
 30
0.0
 40
8.0
  1
下葺き材
100
AcDbText
  0
TEXT
  5
8DD
330
1F
100
AcDbEntity
  8
0
100
AcDbText
 10
155.7423824168765
 20
255.0304165606782
 30
0.0
 40
8.0
  1
既存雨押え
 72
     2
 11
201.6090490835432
 21
255.0304165606782
 31
0.0
100
AcDbText
  0
LINE
  5
8DE
330
1F
100
AcDbEntity
  8
0
100
AcDbLine
 10
411.286619603376
 20
215.3386465131774
 30
0.0
 11
382.6485609322006
 21
264.9412191617965
 31
0.0
  0
LINE
  5
8DF
330
1F
100
AcDbEntity
  8
文字
100
AcDbLine
 10
571.7675557150698
 20
343.6196310414588
 30
0.0
 11
564.7675557150718
 21
343.6196310414588
 31
0.0
  0
LINE
  5
8E0
330
1F
100
AcDbEntity
  8
文字
100
AcDbLine
 10
582.8485221832789
 20
325.5246067312554
 30
0.0
 11
575.8485221832809
 21
325.5246067312554
 31
0.0
  0
LINE
  5
8E1
330
1F
100
AcDbEntity
  8
0
100
AcDbLine
 10
389.766677457917
 20
192.7490247866061
 30
0.0
 11
353.8902329438215
 21
254.8888494799463
 31
0.0
  0
TEXT
  5
8E2
330
1F
100
AcDbEntity
  8
0
100
AcDbText
 10
371.7510420375204
 20
170.0941160565038
 30
0.0
 40
8.0
  1
野地板
100
AcDbText
  0
LINE
  5
8E3
330
1F
100
AcDbEntity
  8
文字
100
AcDbLine
 10
228.981616810179
 20
294.5293689521133
 30
0.0
 11
208.3984364260448
 21
258.8782547454345
 31
0.0
  0
LINE
  5
8E4
330
1F
100
AcDbEntity
  8
文字
 48
0.2499999816274026
100
AcDbLine
 10
208.3984364260448
 20
258.8782547454345
 30
0.0
 11
201.3984364260469
 21
258.8782547454345
 31
0.0
  0
LINE
  5
8E5
330
1F
100
AcDbEntity
  8
0
100
AcDbLine
 10
418.2866196033785
 20
215.3386465131774
 30
0.0
 11
411.286619603376
 21
215.3386465131774
 31
0.0
  0
LINE
  5
8E6
330
1F
100
AcDbEntity
  8
0
100
AcDbLine
 10
396.7666774579193
 20
192.7490247866061
 30
0.0
 11
389.766677457917
 21
192.7490247866061
 31
0.0
  0
LINE
  5
8E7
330
1F
100
AcDbEntity
  8
0
100
AcDbLine
 10
369.1447647901471
 20
174.2127729867126
 30
0.0
 11
362.1447647901446
 21
174.2127729867126
 31
0.0
  0
LINE
  5
8E8
330
1F
100
AcDbEntity
  8
文字
100
AcDbLine
 10
275.6396272868628
 20
160.6692268850387
 30
0.0
 11
268.6396272868603
 21
160.6692268850387
 31
0.0
  0
LINE
  5
8E9
330
1F
100
AcDbEntity
  8
0
100
AcDbLine
 10
268.6396272868603
 20
160.6692268850387
 30
0.0
 11
245.795854635621
 21
200.2358017535436
 31
0.0
  0
LINE
  5
8EA
330
1F
100
AcDbEntity
  8
0
100
AcDbLine
 10
686.0861281578475
 20
305.7362507597392
 30
0.0
 11
359.0599866642049
 21
305.7362507597424
 31
0.0
  0
LINE
  5
8EB
330
1F
100
AcDbEntity
  8
0
100
AcDbLine
 10
686.0861281578475
 20
306.0862507597409
 30
0.0
 11
359.0599866642049
 21
306.0862507597409
 31
0.0
  0
LINE
  5
8EC
330
1F
100
AcDbEntity
  8
0
  6
DASHED
 62
     1
 48
0.2
100
AcDbLine
 10
280.5871503758324
 20
288.2362514616342
 30
0.0
 11
686.0861281578475
 21
288.2362514616342
 31
0.0
  0
LINE
  5
8ED
330
1F
100
AcDbEntity
  8
0
 62
     4
100
AcDbLine
 10
277.9985258914003
 20
267.7888494799478
 30
0.0
 11
686.0861281578475
 21
267.7888494799507
 31
0.0
  0
LINE
  5
8EE
330
1F
100
AcDbEntity
  8
0
 62
     4
100
AcDbLine
 10
277.9985258914003
 20
262.5888494799459
 30
0.0
 11
686.0861281578475
 21
262.5888494799489
 31
0.0
  0
LINE
  5
8EF
330
1F
100
AcDbEntity
  8
0
100
AcDbLine
 10
265.3704610694262
 20
182.3888494799401
 30
0.0
 11
265.3704610694262
 21
242.388849479947
 31
0.0
  0
LINE
  5
8F0
330
1F
100
AcDbEntity
  8
0
100
AcDbLine
 10
220.3704610694224
 20
182.3888494799401
 30
0.0
 11
265.3704610694262
 21
182.3888494799401
 31
0.0
  0
LINE
  5
8F1
330
1F
100
AcDbEntity
  8
0
 62
     4
100
AcDbLine
 10
277.9985258914003
 20
257.3888494799463
 30
0.0
 11
686.0861281578475
 21
257.3888494799463
 31
0.0
  0
LINE
  5
8F2
330
1F
100
AcDbEntity
  8
0
100
AcDbLine
 10
686.0861281578475
 20
242.388849479947
 30
0.0
 11
220.3704610694224
 21
242.388849479947
 31
0.0
  0
LINE
  5
8F3
330
1F
100
AcDbEntity
  8
0
100
AcDbLine
 10
265.3704610694262
 20
242.388849479947
 30
0.0
 11
220.3704610694224
 21
182.3888494799401
 31
0.0
  0
LINE
  5
8F4
330
1F
100
AcDbEntity
  8
0
100
AcDbLine
 10
686.0861281578475
 20
245.3888494799486
 30
0.0
 11
220.3704610694224
 21
245.3888494799486
 31
0.0
  0
LINE
  5
8F5
330
1F
100
AcDbEntity
  8
0
100
AcDbLine
 10
686.0861281578475
 20
251.3888494799474
 30
0.0
 11
220.3704610694224
 21
251.3888494799474
 31
0.0
  0
LINE
  5
8F6
330
1F
100
AcDbEntity
  8
0
100
AcDbLine
 10
686.0861281578475
 20
248.3888494799453
 30
0.0
 11
220.3704610694224
 21
248.3888494799481
 31
0.0
  0
LINE
  5
8F7
330
1F
100
AcDbEntity
  8
0
  6
DASHED
 62
     1
 48
0.2
100
AcDbLine
 10
686.0861281578475
 20
254.8888494799491
 30
0.0
 11
220.8704610694196
 21
254.8888494799463
 31
0.0
  0
LINE
  5
8F8
330
1F
100
AcDbEntity
  8
0
 62
     4
100
AcDbLine
 10
337.3856224055085
 20
255.7388494799467
 30
0.0
 11
349.4021694055109
 21
255.7388494799467
 31
0.0
  0
LINE
  5
8F9
330
1F
100
AcDbEntity
  8
0
 62
     4
100
AcDbLine
 10
337.3856224055085
 20
255.3888494799481
 30
0.0
 11
349.4021694055109
 21
255.3888494799481
 31
0.0
  0
LINE
  5
8FA
330
1F
100
AcDbEntity
  8
0
 62
     4
100
AcDbLine
 10
327.3856224055089
 20
255.7388494799467
 30
0.0
 11
332.718717405505
 21
255.7388494799467
 31
0.0
  0
LINE
  5
8FB
330
1F
100
AcDbEntity
  8
0
 62
     4
100
AcDbLine
 10
327.3856224055089
 20
255.3888494799481
 30
0.0
 11
332.718717405505
 21
255.3888494799481
 31
0.0
  0
ARC
  5
8FC
330
1F
100
AcDbEntity
  8
0
 62
     4
100
AcDbCircle
 10
332.718717405505
 20
256.3888494799472
 30
0.0
 40
0.650000000000074
100
AcDbArc
 50
270.0
 51
314.9999999998598
  0
ARC
  5
8FD
330
1F
100
AcDbEntity
  8
0
 62
     4
100
AcDbCircle
 10
337.3856224055085
 20
256.3888494799472
 30
0.0
 40
1.000000000000113
100
AcDbArc
 50
225.0000000001401
 51
270.0
  0
ARC
  5
8FE
330
1F
100
AcDbEntity
  8
0
 62
     4
100
AcDbCircle
 10
337.3856224055085
 20
256.3888494799472
 30
0.0
 40
0.650000000000074
100
AcDbArc
 50
225.0000000001401
 51
270.0
  0
ARC
  5
8FF
330
1F
100
AcDbEntity
  8
0
 62
     4
100
AcDbCircle
 10
332.718717405505
 20
256.3888494799472
 30
0.0
 40
1.000000000000113
100
AcDbArc
 50
270.0
 51
314.9999999998598
  0
LINE
  5
900
330
1F
100
AcDbEntity
  8
0
 62
     4
100
AcDbLine
 10
334.5925504055137
 20
256.8484684799456
 30
0.0
 11
333.4258244055125
 21
255.6817424799489
 31
0.0
  0
ARC
  5
901
330
1F
100
AcDbEntity
  8
0
 62
     4
100
AcDbCircle
 10
335.0521694055076
 20
256.3888494799472
 30
0.0
 40
0.650000000000074
100
AcDbArc
 50
45.00000000014012
 51
134.9999999998598
  0
LINE
  5
902
330
1F
100
AcDbEntity
  8
0
 62
     4
100
AcDbLine
 10
335.511789405509
 20
256.8484684799456
 30
0.0
 11
336.6785154055101
 21
255.6817424799489
 31
0.0
  0
ARC
  5
903
330
1F
100
AcDbEntity
  8
0
 62
     4
100
AcDbCircle
 10
335.0521694055076
 20
256.3888494799472
 30
0.0
 40
1.000000000000113
100
AcDbArc
 50
45.00000000014012
 51
134.9999999998598
  0
LINE
  5
904
330
1F
100
AcDbEntity
  8
0
 62
     4
100
AcDbLine
 10
334.3450624055092
 20
257.0959564799456
 30
0.0
 11
333.178336405508
 21
255.9292304799443
 31
0.0
  0
ARC
  5
905
330
1F
100
AcDbEntity
  8
0
 62
     4
100
AcDbCircle
 10
322.7187174055055
 20
256.3888494799472
 30
0.0
 40
0.650000000000074
100
AcDbArc
 50
270.0
 51
314.9999999998598
  0
ARC
  5
906
330
1F
100
AcDbEntity
  8
0
 62
     4
100
AcDbCircle
 10
327.3856224055089
 20
256.3888494799472
 30
0.0
 40
0.650000000000074
100
AcDbArc
 50
225.0000000001401
 51
270.0
  0
LINE
  5
90A
330
1F
100
AcDbEntity
  8
0
 62
     4
100
AcDbLine
 10
325.5117894055093
 20
256.8484684799456
 30
0.0
 11
326.6785154055106
 21
255.6817424799489
 31
0.0
  0
ARC
  5
90B
330
1F
100
AcDbEntity
  8
0
 62
     4
100
AcDbCircle
 10
325.0521694055078
 20
256.3888494799472
 30
0.0
 40
0.650000000000074
100
AcDbArc
 50
45.00000000014012
 51
134.9999999998598
  0
LINE
  5
90C
330
1F
100
AcDbEntity
  8
0
 62
     4
100
AcDbLine
 10
324.3450624055097
 20
257.0959564799456
 30
0.0
 11
323.1783364055039
 21
255.9292304799443
 31
0.0
  0
ARC
  5
90D
330
1F
100
AcDbEntity
  8
0
 62
     4
100
AcDbCircle
 10
325.0521694055078
 20
256.3888494799472
 30
0.0
 40
1.000000000000113
100
AcDbArc
 50
45.00000000014012
 51
134.9999999998598
  0
ARC
  5
90F
330
1F
100
AcDbEntity
  8
0
 62
     4
100
AcDbCircle
 10
349.4021694055109
 20
256.3888494799472
 30
0.0
 40
0.650000000000074
100
AcDbArc
 50
270.0
 51
90.0
  0
ARC
  5
910
330
1F
100
AcDbEntity
  8
0
 62
     4
100
AcDbCircle
 10
349.4021694055109
 20
256.3888494799472
 30
0.0
 40
1.000000000000113
100
AcDbArc
 50
270.0
 51
90.0
  0
LINE
  5
911
330
1F
100
AcDbEntity
  8
0
 62
     4
100
AcDbLine
 10
345.4021694055057
 20
257.0388494799478
 30
0.0
 11
349.4021694055109
 21
257.0388494799478
 31
0.0
  0
LINE
  5
912
330
1F
100
AcDbEntity
  8
0
 62
     4
100
AcDbLine
 10
345.4021694055057
 20
257.3888494799463
 30
0.0
 11
345.4021694055057
 21
257.0388494799478
 31
0.0
  0
LINE
  5
913
330
1F
100
AcDbEntity
  8
0
  6
DASHED
 62
     1
 48
0.2
100
AcDbLine
 10
358.4099866642089
 20
320.1443354139475
 30
0.0
 11
357.0099866642056
 21
321.9137832181901
 31
0.0
  0
LINE
  5
914
330
1F
100
AcDbEntity
  8
0
100
AcDbLine
 10
357.9099866642071
 20
320.1443354139475
 30
0.0
 11
357.9099866642071
 21
307.236250759741
 31
0.0
  0
LINE
  5
915
330
1F
100
AcDbEntity
  8
0
  6
DASHED
 62
     1
 48
0.2
100
AcDbLine
 10
358.4099866642089
 20
320.1443354139475
 30
0.0
 11
358.4099866642089
 21
307.236250759741
 31
0.0
  0
TEXT
  5
917
330
1F
100
AcDbEntity
  8
0
100
AcDbText
 10
478.4630502915717
 20
348.3222820336858
 30
0.0
 40
8.0
  1
吊り子(現場調達)
100
AcDbText
  0
LINE
  5
918
330
1F
100
AcDbEntity
  8
文字
100
AcDbLine
 10
435.2338344639661
 20
293.4872867699379
 30
0.0
 11
469.2182488386119
 21
352.3500191322991
 31
0.0
  0
LINE
  5
919
330
1F
100
AcDbEntity
  8
0
 62
     4
100
AcDbLine
 10
302.3856224055007
 20
255.7388494799467
 30
0.0
 11
322.7187174055055
 21
255.7388494799467
 31
0.0
  0
LINE
  5
91A
330
1F
100
AcDbEntity
  8
0
 62
     4
100
AcDbLine
 10
302.3856224055007
 20
255.3888494799481
 30
0.0
 11
322.7187174055055
 21
255.3888494799481
 31
0.0
  0
LINE
  5
91B
330
1F
100
AcDbEntity
  8
0
 62
     4
100
AcDbLine
 10
292.3856224055012
 20
255.3888494799481
 30
0.0
 11
297.7187174054973
 21
255.3888494799481
 31
0.0
  0
LINE
  5
91C
330
1F
100
AcDbEntity
  8
0
 62
     4
100
AcDbLine
 10
292.3856224055012
 20
255.7388494799467
 30
0.0
 11
297.7187174054973
 21
255.7388494799467
 31
0.0
  0
ARC
  5
91D
330
1F
100
AcDbEntity
  8
0
 62
     4
100
AcDbCircle
 10
297.7187174054973
 20
256.3888494799472
 30
0.0
 40
0.650000000000074
100
AcDbArc
 50
270.0
 51
314.9999999998598
  0
LINE
  5
91E
330
1F
100
AcDbEntity
  8
文字
100
AcDbLine
 10
362.0321443950457
 20
307.2644046051033
 30
0.0
 11
403.0576214462023
 21
378.3226152624708
 31
0.0
  0
ARC
  5
91F
330
1F
100
AcDbEntity
  8
0
 62
     4
100
AcDbCircle
 10
297.7187174054973
 20
256.3888494799472
 30
0.0
 40
1.000000000000113
100
AcDbArc
 50
270.0
 51
314.9999999998598
  0
ARC
  5
920
330
1F
100
AcDbEntity
  8
0
 62
     4
100
AcDbCircle
 10
302.3856224055007
 20
256.3888494799472
 30
0.0
 40
1.000000000000113
100
AcDbArc
 50
225.0000000001401
 51
270.0
  0
LINE
  5
921
330
1F
100
AcDbEntity
  8
文字
100
AcDbLine
 10
303.1822353731432
 20
391.2970511089812
 30
0.0
 11
267.744672041224
 21
329.9173909216753
 31
0.0
  0
LINE
  5
922
330
1F
100
AcDbEntity
  8
0
 62
     4
100
AcDbLine
 10
300.5117894055013
 20
256.8484684799456
 30
0.0
 11
301.6785154055024
 21
255.6817424799489
 31
0.0
  0
ARC
  5
923
330
1F
100
AcDbEntity
  8
0
 62
     4
100
AcDbCircle
 10
300.0521694054999
 20
256.3888494799472
 30
0.0
 40
1.000000000000113
100
AcDbArc
 50
45.00000000014012
 51
134.9999999998598
  0
ARC
  5
924
330
1F
100
AcDbEntity
  8
0
 62
     4
100
AcDbCircle
 10
300.0521694054999
 20
256.3888494799472
 30
0.0
 40
0.650000000000074
100
AcDbArc
 50
45.00000000014012
 51
134.9999999998598
  0
LINE
  5
925
330
1F
100
AcDbEntity
  8
0
 62
     4
100
AcDbLine
 10
299.3450624055015
 20
257.0959564799456
 30
0.0
 11
298.1783364055002
 21
255.9292304799443
 31
0.0
  0
LINE
  5
926
330
1F
100
AcDbEntity
  8
0
 62
     4
100
AcDbLine
 10
300.759276405498
 20
257.0959564799456
 30
0.0
 11
301.9260024054993
 21
255.9292304799443
 31
0.0
  0
LINE
  5
927
330
1F
100
AcDbEntity
  8
文字
100
AcDbLine
 10
282.5087997401263
 20
427.7477458380409
 30
0.0
 11
257.5624400381244
 21
384.5393833702848
 31
0.0
  0
LINE
  5
928
330
1F
100
AcDbEntity
  8
文字
100
AcDbLine
 10
289.5087997401288
 20
427.7477458380409
 30
0.0
 11
282.5087997401308
 21
427.7477458380409
 31
0.0
  0
LINE
  5
929
330
1F
100
AcDbEntity
  8
文字
100
AcDbLine
 10
291.9391953673087
 20
405.3985382826116
 30
0.0
 11
284.9391953673107
 21
405.3985382826116
 31
0.0
  0
LINE
  5
92A
330
1F
100
AcDbEntity
  8
文字
100
AcDbLine
 10
284.9391953673107
 20
405.3985382826116
 30
0.0
 11
257.9868337967917
 21
358.7156786585111
 31
0.0
  0
ARC
  5
92B
330
1F
100
AcDbEntity
  8
0
 62
     4
100
AcDbCircle
 10
287.7187174054977
 20
256.3888494799472
 30
0.0
 40
1.000000000000113
100
AcDbArc
 50
270.0
 51
314.9999999998598
  0
LINE
  5
92C
330
1F
100
AcDbEntity
  8
0
 62
     4
100
AcDbLine
 10
289.3450624055017
 20
257.0959564799456
 30
0.0
 11
288.1783364055007
 21
255.9292304799443
 31
0.0
  0
ARC
  5
92D
330
1F
100
AcDbEntity
  8
0
 62
     4
100
AcDbCircle
 10
292.3856224055012
 20
256.3888494799472
 30
0.0
 40
1.000000000000113
100
AcDbArc
 50
225.0000000001401
 51
270.0
  0
ARC
  5
92E
330
1F
100
AcDbEntity
  8
0
 62
     4
100
AcDbCircle
 10
290.0521694055001
 20
256.3888494799472
 30
0.0
 40
0.650000000000074
100
AcDbArc
 50
45.00000000014012
 51
134.9999999998598
  0
ARC
  5
92F
330
1F
100
AcDbEntity
  8
0
 62
     4
100
AcDbCircle
 10
272.401047359683
 20
256.3888494799472
 30
0.0
 40
0.650000000000074
100
AcDbArc
 50
180.0
 51
270.0
  0
ARC
  5
930
330
1F
100
AcDbEntity
  8
0
 62
     4
100
AcDbCircle
 10
272.401047359683
 20
256.3888494799472
 30
0.0
 40
1.000000000000113
100
AcDbArc
 50
180.0
 51
270.0
  0
ARC
  5
931
330
1F
100
AcDbEntity
  8
0
100
AcDbCircle
 10
270.7510473596833
 20
274.7362514616356
 30
0.0
 40
0.650000000000074
100
AcDbArc
 50
0.0
 51
90.0
  0
LINE
  5
932
330
1F
100
AcDbEntity
  8
0
 62
     4
100
AcDbLine
 10
222.4010473596747
 20
275.3862514616361
 30
0.0
 11
270.7510473596833
 21
275.3862514616361
 31
0.0
  0
ARC
  5
933
330
1F
100
AcDbEntity
  8
0
 62
     4
100
AcDbCircle
 10
222.4010473596747
 20
276.3862514616352
 30
0.0
 40
0.650000000000074
100
AcDbArc
 50
180.0
 51
270.0
  0
ARC
  5
934
330
1F
100
AcDbEntity
  8
0
 62
     4
100
AcDbCircle
 10
222.4010473596747
 20
276.3862514616352
 30
0.0
 40
1.000000000000113
100
AcDbArc
 50
180.0
 51
270.0
  0
LINE
  5
935
330
1F
100
AcDbEntity
  8
0
 62
     4
100
AcDbLine
 10
221.7510473596787
 20
276.3862514616352
 30
0.0
 11
221.7510473596787
 21
344.3787244411798
 31
0.0
  0
LINE
  5
936
330
1F
100
AcDbEntity
  8
0
 62
     4
100
AcDbLine
 10
221.4010473596711
 20
276.3862514616352
 30
0.0
 11
221.4010473596711
 21
344.3787244411798
 31
0.0
  0
LINE
  5
937
330
1F
100
AcDbEntity
  8
0
 62
     4
100
AcDbLine
 10
223.0510473596705
 20
340.3787244411768
 30
0.0
 11
223.0510473596705
 21
344.3787244411798
 31
0.0
  0
LINE
  5
938
330
1F
100
AcDbEntity
  8
0
 62
     4
100
AcDbLine
 10
223.4010473596691
 20
340.3787244411768
 30
0.0
 11
223.0510473596705
 21
340.3787244411768
 31
0.0
  0
ARC
  5
939
330
1F
100
AcDbEntity
  8
0
 62
     4
100
AcDbCircle
 10
222.4010473596747
 20
344.3787244411798
 30
0.0
 40
0.650000000000074
100
AcDbArc
 50
0.0
 51
180.0
  0
ARC
  5
93A
330
1F
100
AcDbEntity
  8
0
 62
     6
100
AcDbCircle
 10
443.0308181989359
 20
289.7362514616328
 30
0.0
 40
0.9999999999999623
100
AcDbArc
 50
239.9999999999704
 51
270.0
  0
LINE
  5
93B
330
1F
100
AcDbEntity
  8
0
 62
     4
100
AcDbLine
 10
223.4010473596691
 20
296.2405345616627
 30
0.0
 11
223.4010473596691
 21
366.3577348053656
 31
0.0
  0
LINE
  5
93C
330
1F
100
AcDbEntity
  8
0
 62
     4
100
AcDbLine
 10
225.4010473596764
 20
362.3577348053649
 30
0.0
 11
225.4010473596764
 21
366.3577348053656
 31
0.0
  0
LINE
  5
93D
330
1F
100
AcDbEntity
  8
0
 62
     4
100
AcDbLine
 10
225.4010473596764
 20
362.3577348053649
 30
0.0
 11
225.0510473596778
 21
362.3577348053649
 31
0.0
  0
ARC
  5
93E
330
1F
100
AcDbEntity
  8
0
 62
     4
100
AcDbCircle
 10
224.4010473596727
 20
366.3577348053656
 30
0.0
 40
0.650000000000074
100
AcDbArc
 50
0.0
 51
180.0
  0
LINE
  5
93F
330
1F
100
AcDbEntity
  8
0
 62
     4
100
AcDbLine
 10
225.0510473596778
 20
362.3577348053649
 30
0.0
 11
225.0510473596778
 21
366.3577348053656
 31
0.0
  0
ARC
  5
940
330
1F
100
AcDbEntity
  8
0
 62
     4
100
AcDbCircle
 10
224.4010473596727
 20
366.3577348053656
 30
0.0
 40
1.000000000000113
100
AcDbArc
 50
0.0
 51
180.0
  0
LINE
  5
941
330
1F
100
AcDbEntity
  8
0
  6
DASHED
 62
     1
 48
0.2
100
AcDbLine
 10
220.8704610694196
 20
456.8004833113213
 30
0.0
 11
220.8704610694242
 21
254.8888494799486
 31
0.0
  0
ARC
  5
942
330
1F
100
AcDbEntity
  8
0
 62
     4
100
AcDbCircle
 10
439.0389497118579
 20
289.5862514616341
 30
0.0
 40
0.4999999999999812
100
AcDbArc
 50
270.0
 51
59.99999999997044
  0
LINE
  5
943
330
1F
100
AcDbEntity
  8
0
100
AcDbLine
 10
226.40104735968
 20
470.5425037727866
 30
0.0
 11
226.40104735968
 21
306.0862514616343
 31
0.0
  0
LINE
  5
944
330
1F
100
AcDbEntity
  8
0
100
AcDbLine
 10
256.40104735968
 20
470.5425037727866
 30
0.0
 11
256.40104735968
 21
306.0862514616343
 31
0.0
  0
LINE
  5
945
330
1F
100
AcDbEntity
  8
0
100
AcDbLine
 10
226.40104735968
 20
306.0862514616343
 30
0.0
 11
256.40104735968
 21
306.0862514616343
 31
0.0
  0
ARC
  5
946
330
1F
100
AcDbEntity
  8
0
 62
     4
100
AcDbCircle
 10
357.0349866642016
 20
318.5612514616333
 30
0.0
 40
0.1750000000001753
100
AcDbArc
 50
0.0
 51
180.0
  0
TEXT
  5
947
330
1F
100
AcDbEntity
  8
0
100
AcDbText
 10
282.4966543922546
 20
459.2492037289225
 30
0.0
 40
8.0
  1
既存外壁材
100
AcDbText
  0
LINE
  5
948
330
1F
100
AcDbEntity
  8
文字
100
AcDbLine
 10
272.713176362947
 20
462.9823587162347
 30
0.0
 11
248.3543772245532
 21
420.7916809971751
 31
0.0
  0
LINE
  5
949
330
1F
100
AcDbEntity
  8
0
100
AcDbLine
 10
686.0861281578475
 20
284.7362514616331
 30
0.0
 11
224.7769676744456
 21
284.7362514616331
 31
0.0
  0
LINE
  5
94A
330
1F
100
AcDbEntity
  8
0
100
AcDbLine
 10
686.0861281578475
 20
281.7362514616335
 30
0.0
 11
224.7769676744456
 21
281.7362514616335
 31
0.0
  0
LINE
  5
94B
330
1F
100
AcDbEntity
  8
0
100
AcDbLine
 10
686.0861281578475
 20
287.7362514616318
 30
0.0
 11
224.7769676744456
 21
287.7362514616347
 31
0.0
  0
LINE
  5
94C
330
1F
100
AcDbEntity
  8
0
100
AcDbLine
 10
686.0861281578475
 20
275.7362514616318
 30
0.0
 11
224.7769676744456
 21
275.7362514616346
 31
0.0
  0
TEXT
  5
94D
330
1F
100
AcDbEntity
  8
0
100
AcDbText
 10
611.5883192042217
 20
309.802289210225
 30
0.0
 40
8.0
  1
耐水合板
100
AcDbText
  0
LINE
  5
94E
330
1F
100
AcDbEntity
  8
文字
 48
0.2499999816274026
100
AcDbLine
 10
603.2911454166808
 20
313.1405639105655
 30
0.0
 11
585.4178725134832
 21
282.1831471446845
 31
0.0
  0
LINE
  5
954
330
1F
100
AcDbEntity
  8
0
  6
DASHED
 62
     1
 48
0.2
100
AcDbLine
 10
357.0099866642056
 20
329.0673909216727
 30
0.0
 11
357.0099866642056
 21
321.9137832181901
 31
0.0
  0
LINE
  5
95E
330
1F
100
AcDbEntity
  8
文字
100
AcDbLine
 10
564.7675557150718
 20
343.6196310414588
 30
0.0
 11
538.0824783330758
 21
297.3997212119334
 31
0.0
  0
LINE
  5
95F
330
1F
100
AcDbEntity
  8
0
 62
     4
100
AcDbLine
 10
266.4010473596795
 20
255.3888494799481
 30
0.0
 11
221.4010473596711
 21
255.3888494799481
 31
0.0
  0
TEXT
  5
960
330
1F
100
AcDbEntity
  8
0
100
AcDbText
 10
279.3757980383459
 20
158.139660640625
 30
0.0
 40
8.0
  1
たる木
100
AcDbText
  0
TEXT
  5
961
330
1F
100
AcDbEntity
  8
0
100
AcDbText
 10
573.3268018105409
 20
339.9041353352644
 30
0.0
 40
8.0
  1
本体
100
AcDbText
  0
LINE
  5
962
330
1F
100
AcDbEntity
  8
0
100
AcDbLine
 10
221.4010473596711
 20
255.3888494799481
 30
0.0
 11
221.4010473596711
 21
273.3888494799515
 31
0.0
  0
LINE
  5
964
330
1F
100
AcDbEntity
  8
0
100
AcDbLine
 10
221.4010473596711
 20
273.3888494799515
 30
0.0
 11
266.4010473596795
 21
273.3888494799515
 31
0.0
  0
LINE
  5
965
330
1F
100
AcDbEntity
  8
文字
100
AcDbLine
 10
575.8485221832809
 20
325.5246067312554
 30
0.0
 11
554.3200802307222
 21
288.2362514616342
 31
0.0
  0
LINE
  5
966
330
1F
100
AcDbEntity
  8
0
100
AcDbLine
 10
266.4010473596795
 20
273.3888494799515
 30
0.0
 11
221.4010473596711
 21
255.3888494799481
 31
0.0
  0
LINE
  5
967
330
1F
100
AcDbEntity
  8
0
 62
     4
100
AcDbLine
 10
266.4010473596795
 20
273.3888494799515
 30
0.0
 11
266.4010473596795
 21
255.3888494799481
 31
0.0
  0
LINE
  5
968
330
1F
100
AcDbEntity
  8
0
100
AcDbLine
 10
362.1447647901446
 20
174.2127729867126
 30
0.0
 11
319.9837650327665
 21
247.2377666644007
 31
0.0
  0
TEXT
  5
969
330
1F
100
AcDbEntity
  8
0
100
AcDbText
 10
420.8451271737258
 20
211.6050608626661
 30
0.0
 40
8.0
  1
既存屋根材
100
AcDbText
  0
LINE
  5
96A
330
1F
100
AcDbEntity
  8
0
 62
     4
100
AcDbLine
 10
277.9985258914003
 20
272.9888494799474
 30
0.0
 11
686.0861281578475
 21
272.9888494799474
 31
0.0
  0
LINE
  5
96B
330
1F
100
AcDbEntity
  8
0
 62
     4
100
AcDbLine
 10
277.9985258914003
 20
272.9888494799474
 30
0.0
 11
277.9985258914003
 21
257.3888494799463
 31
0.0
  0
LINE
  5
974
330
1F
100
AcDbEntity
  8
0
100
AcDbLine
 10
686.0861281578475
 20
254.388849479947
 30
0.0
 11
220.3704610694224
 21
254.388849479947
 31
0.0
  0
LINE
  5
97C
330
1F
100
AcDbEntity
  8
0
 62
     4
100
AcDbLine
 10
335.759276405506
 20
257.0959564799456
 30
0.0
 11
336.926002405507
 21
255.9292304799443
 31
0.0
  0
ARC
  5
981
330
1F
100
AcDbEntity
  8
0
 62
     4
100
AcDbCircle
 10
322.7187174055055
 20
256.3888494799472
 30
0.0
 40
1.000000000000113
100
AcDbArc
 50
270.0
 51
314.9999999998598
  0
LINE
  5
982
330
1F
100
AcDbEntity
  8
0
 62
     4
100
AcDbLine
 10
324.5925504055142
 20
256.8484684799456
 30
0.0
 11
323.4258244055084
 21
255.6817424799489
 31
0.0
  0
ARC
  5
983
330
1F
100
AcDbEntity
  8
0
 62
     4
100
AcDbCircle
 10
327.3856224055089
 20
256.3888494799472
 30
0.0
 40
1.000000000000113
100
AcDbArc
 50
225.0000000001401
 51
270.0
  0
LINE
  5
988
330
1F
100
AcDbEntity
  8
0
 62
     4
100
AcDbLine
 10
325.7592764055062
 20
257.0959564799456
 30
0.0
 11
326.9260024055075
 21
255.9292304799443
 31
0.0
  0
LINE
  5
989
330
1F
100
AcDbEntity
  8
0
 62
     4
100
AcDbLine
 10
345.4021694055057
 20
257.3888494799463
 30
0.0
 11
349.4021694055109
 21
257.3888494799463
 31
0.0
  0
ARC
  5
98F
330
1F
100
AcDbEntity
  8
0
 62
     4
100
AcDbCircle
 10
302.3856224055007
 20
256.3888494799472
 30
0.0
 40
0.650000000000074
100
AcDbArc
 50
225.0000000001401
 51
270.0
  0
LINE
  5
990
330
1F
100
AcDbEntity
  8
0
 62
     4
100
AcDbLine
 10
299.592550405506
 20
256.8484684799456
 30
0.0
 11
298.4258244055047
 21
255.6817424799489
 31
0.0
  0
ARC
  5
991
330
1F
100
AcDbEntity
  8
0
 62
     4
100
AcDbCircle
 10
292.3856224055012
 20
256.3888494799472
 30
0.0
 40
0.650000000000074
100
AcDbArc
 50
225.0000000001401
 51
270.0
  0
ARC
  5
992
330
1F
100
AcDbEntity
  8
0
 62
     4
100
AcDbCircle
 10
287.7187174054977
 20
256.3888494799472
 30
0.0
 40
0.650000000000074
100
AcDbArc
 50
270.0
 51
314.9999999998598
  0
LINE
  5
993
330
1F
100
AcDbEntity
  8
0
 62
     4
100
AcDbLine
 10
289.5925504055063
 20
256.8484684799456
 30
0.0
 11
288.4258244055052
 21
255.6817424799489
 31
0.0
  0
LINE
  5
994
330
1F
100
AcDbEntity
  8
0
 62
     4
100
AcDbLine
 10
290.5117894055015
 20
256.8484684799456
 30
0.0
 11
291.6785154055028
 21
255.6817424799489
 31
0.0
  0
ARC
  5
995
330
1F
100
AcDbEntity
  8
0
 62
     4
100
AcDbCircle
 10
290.0521694055001
 20
256.3888494799472
 30
0.0
 40
1.000000000000113
100
AcDbArc
 50
45.00000000014012
 51
134.9999999998598
  0
LINE
  5
996
330
1F
100
AcDbEntity
  8
0
 62
     4
100
AcDbLine
 10
290.7592764054984
 20
257.0959564799456
 30
0.0
 11
291.9260024054997
 21
255.9292304799443
 31
0.0
  0
LINE
  5
997
330
1F
100
AcDbEntity
  8
0
 62
     4
100
AcDbLine
 10
272.401047359683
 20
255.7388494799467
 30
0.0
 11
287.7187174054977
 21
255.7388494799467
 31
0.0
  0
LINE
  5
998
330
1F
100
AcDbEntity
  8
0
 62
     4
100
AcDbLine
 10
272.401047359683
 20
255.3888494799481
 30
0.0
 11
287.7187174054977
 21
255.3888494799481
 31
0.0
  0
LINE
  5
999
330
1F
100
AcDbEntity
  8
0
 62
     4
100
AcDbLine
 10
271.4010473596793
 20
274.7362514616356
 30
0.0
 11
271.4010473596793
 21
256.3888494799472
 31
0.0
  0
LINE
  5
99A
330
1F
100
AcDbEntity
  8
0
 62
     4
100
AcDbLine
 10
271.751047359687
 20
274.7362514616356
 30
0.0
 11
271.7510473596778
 21
256.3888494799472
 31
0.0
  0
ARC
  5
99B
330
1F
100
AcDbEntity
  8
0
100
AcDbCircle
 10
270.7510473596833
 20
274.7362514616356
 30
0.0
 40
1.000000000000113
100
AcDbArc
 50
0.0
 51
90.0
  0
LINE
  5
99C
330
1F
100
AcDbEntity
  8
0
 62
     4
100
AcDbLine
 10
222.4010473596747
 20
275.7362514616346
 30
0.0
 11
270.7510473596833
 21
275.7362514616346
 31
0.0
  0
ARC
  5
9A2
330
1F
100
AcDbEntity
  8
0
 62
     4
100
AcDbCircle
 10
222.4010473596747
 20
344.3787244411798
 30
0.0
 40
1.000000000000113
100
AcDbArc
 50
0.0
 51
180.0
  0
LINE
  5
9A6
330
1F
100
AcDbEntity
  8
0
 62
     4
100
AcDbLine
 10
223.7510473596676
 20
296.2405345616627
 30
0.0
 11
223.7510473596767
 21
366.3577348053656
 31
0.0
  0
LINE
  5
9AB
330
1F
100
AcDbEntity
  8
0
100
AcDbLine
 10
220.3704610694181
 20
470.5425037727866
 30
0.0
 11
220.3704610694269
 21
139.7639207791668
 31
0.0
  0
LINE
  5
9B0
330
1F
100
AcDbEntity
  8
0
  6
DASHED
 62
     1
 48
0.2
100
AcDbLine
 10
225.9010473596782
 20
470.5425037727866
 30
0.0
 11
225.9010473596782
 21
306.0862514616343
 31
0.0
  0
LINE
  5
9B2
330
1F
100
AcDbEntity
  8
0
  6
DASHED
 62
     1
 48
0.2
100
AcDbLine
 10
256.9010473596772
 20
370.2276849488254
 30
0.0
 11
256.9010473596761
 21
301.2411447655321
 31
0.0
  0
LINE
  5
9B3
330
1F
100
AcDbEntity
  8
文字
100
AcDbLine
 10
279.713176362945
 20
462.9823587162347
 30
0.0
 11
272.713176362947
 21
462.9823587162347
 31
0.0
  0
LINE
  5
9B4
330
1F
100
AcDbEntity
  8
0
100
AcDbLine
 10
224.7769676744456
 20
287.7362514616347
 30
0.0
 11
224.7769676744456
 21
275.7362514616346
 31
0.0
  0
LINE
  5
9B5
330
1F
100
AcDbEntity
  8
0
100
AcDbLine
 10
686.0861281578475
 20
278.7362514616342
 30
0.0
 11
224.7769676744456
 21
278.7362514616342
 31
0.0
  0
LINE
  5
9B6
330
1F
100
AcDbEntity
  8
文字
 48
0.2499999816274026
100
AcDbLine
 10
610.2911454166785
 20
313.1405639105655
 30
0.0
 11
603.2911454166808
 21
313.1405639105655
 31
0.0
  0
LINE
  5
9DB
330
1F
100
AcDbEntity
  8
本体
100
AcDbLine
 10
443.0308181989359
 20
289.0862507597411
 30
0.0
 11
443.0308181989359
 21
305.7362507597424
 31
0.0
  0
LINE
  5
9E0
330
1F
100
AcDbEntity
  8
0
 62
     4
100
AcDbLine
 10
223.967918284756
 20
295.9717483814903
 30
0.0
 11
253.7126160211294
 21
289.5390078220533
 31
0.0
  0
LINE
  5
9E1
330
1F
100
AcDbEntity
  8
0
 62
     4
100
AcDbLine
 10
223.8939358257749
 20
295.6296568794607
 30
0.0
 11
253.6752020945521
 21
289.1890078220548
 31
0.0
  0
ARC
  5
9E2
330
1F
100
AcDbEntity
  8
0
 62
     4
100
AcDbCircle
 10
224.0260473596691
 20
296.2405345616627
 30
0.0
 40
0.6249999999999764
100
AcDbArc
 50
180.0
 51
257.7968545812713
  0
ARC
  5
9E3
330
1F
100
AcDbEntity
  8
0
 62
     4
100
AcDbCircle
 10
224.0260473596691
 20
296.2405345616627
 30
0.0
 40
0.2750000000014448
100
AcDbArc
 50
180.0
 51
257.7968545812713
  0
LINE
  5
9E4
330
1F
100
AcDbEntity
  8
0
 62
     4
100
AcDbLine
 10
253.6752020945521
 20
289.1890078220548
 30
0.0
 11
275.6386711510593
 21
289.1890078220548
 31
0.0
  0
LINE
  5
9E5
330
1F
100
AcDbEntity
  8
0
 62
     4
100
AcDbLine
 10
253.7126160211294
 20
289.5390078220533
 30
0.0
 11
275.6386711510593
 21
289.5390078220556
 31
0.0
  0
LINE
  5
9E6
330
1F
100
AcDbEntity
  8
0
  6
DASHED
 62
     1
 48
0.2
100
AcDbLine
 10
256.9010473596772
 20
301.2411447655321
 30
0.0
 11
280.5871503758335
 21
288.2362514616342
 31
0.0
  0
LINE
  5
9E7
330
1F
100
AcDbEntity
  8
0
 62
     4
100
AcDbLine
 10
275.6386711510593
 20
289.1890078220548
 30
0.0
 11
275.6386711510593
 21
289.5390078220533
 31
0.0
  0
LINE
  5
9E8
330
1F
100
AcDbEntity
  8
0
 62
     2
100
AcDbLine
 10
295.0261316927458
 20
321.023337820816
 30
0.0
 11
300.5261316927806
 21
322.5483378208263
 31
0.0
  0
LINE
  5
9E9
330
1F
100
AcDbEntity
  8
0
 62
     2
100
AcDbLine
 10
295.0261316927458
 20
321.023337820816
 30
0.0
 11
300.5261316927806
 21
319.49833782081
 31
0.0
  0
LINE
  5
9EA
330
1F
100
AcDbEntity
  8
0
 62
     2
100
AcDbLine
 10
361.3261316930889
 20
317.5233378207987
 30
0.0
 11
360.0261316930915
 21
317.5233378207987
 31
0.0
  0
LINE
  5
9EB
330
1F
100
AcDbEntity
  8
0
 62
     2
100
AcDbLine
 10
361.3261316930889
 20
324.5233378208353
 30
0.0
 11
361.3261316930889
 21
317.5233378207987
 31
0.0
  0
LINE
  5
9EC
330
1F
100
AcDbEntity
  8
0
 62
     2
100
AcDbLine
 10
360.0261316930915
 20
324.5233378208353
 30
0.0
 11
360.0261316930915
 21
317.5233378207987
 31
0.0
  0
LINE
  5
9ED
330
1F
100
AcDbEntity
  8
0
 62
     2
100
AcDbLine
 10
361.3261316930889
 20
324.5233378208353
 30
0.0
 11
360.0261316930915
 21
324.5233378208353
 31
0.0
  0
LINE
  5
9EE
330
1F
100
AcDbEntity
  8
0
 62
     2
100
AcDbLine
 10
360.0261316930915
 20
322.5483378208263
 30
0.0
 11
300.5261316927806
 21
322.5483378208263
 31
0.0
  0
LINE
  5
9EF
330
1F
100
AcDbEntity
  8
0
 62
     2
100
AcDbLine
 10
360.0261316930915
 20
319.49833782081
 30
0.0
 11
300.5261316927806
 21
319.49833782081
 31
0.0
  0
LINE
  5
9F0
330
1F
100
AcDbEntity
  8
0
100
AcDbLine
 10
284.5099866638264
 20
328.7362514618414
 30
0.0
 11
284.5099866638264
 21
288.7362514616269
 31
0.0
  0
LINE
  5
9F1
330
1F
100
AcDbEntity
  8
0
 62
     2
100
AcDbLine
 10
261.3510473591694
 20
384.2705453054735
 30
0.0
 11
259.7510473591662
 21
384.2705453054735
 31
0.0
  0
LINE
  5
9F2
330
1F
100
AcDbEntity
  8
0
 62
     2
100
AcDbLine
 10
261.3510473591694
 20
375.6705453054295
 30
0.0
 11
261.3510473591694
 21
384.2705453054735
 31
0.0
  0
LINE
  5
9F3
330
1F
100
AcDbEntity
  8
0
 62
     2
100
AcDbLine
 10
259.7510473591662
 20
375.6705453054295
 30
0.0
 11
261.3510473591694
 21
375.6705453054295
 31
0.0
  0
LINE
  5
9F4
330
1F
100
AcDbEntity
  8
0
  6
DASHED
 62
     1
 48
0.2
100
AcDbLine
 10
257.9010473591659
 20
356.0588244090046
 30
0.0
 11
257.9010473591659
 21
329.0673909216727
 31
0.0
  0
LINE
  5
9F5
330
1F
100
AcDbEntity
  8
0
  6
DASHED
 62
     1
 48
0.2
100
AcDbLine
 10
256.9010473591498
 20
356.0588244090046
 30
0.0
 11
256.9010473591498
 21
312.1325969811167
 31
0.0
  0
LINE
  5
9F6
330
1F
100
AcDbEntity
  8
0
 62
     2
100
AcDbLine
 10
259.7510473591662
 20
381.8455453054595
 30
0.0
 11
176.7486426229346
 21
381.8455453054595
 31
0.0
  0
LINE
  5
9F7
330
1F
100
AcDbEntity
  8
0
 62
     2
100
AcDbLine
 10
259.7510473591662
 20
378.0955453054413
 30
0.0
 11
176.7486426229346
 21
378.0955453054413
 31
0.0
  0
LINE
  5
9F8
330
1F
100
AcDbEntity
  8
0
100
AcDbLine
 10
256.4010473591479
 20
393.8852686451397
 30
0.0
 11
259.4010473591597
 21
393.8852686451397
 31
0.0
  0
HATCH
  5
9F9
330
1F
100
AcDbEntity
  8
0
100
AcDbHatch
 10
0.0
 20
0.0
 30
0.0
210
0.0
220
0.0
230
1.0
  2
ANSI37
 70
     0
 71
     0
 91
        3
 92
        7
 72
     0
 73
     1
 93
        4
 10
259.4010473591711
 20
393.8852686451397
 10
256.4010473591582
 20
393.8852686451397
 10
256.4010473591582
 20
381.8455453054595
 10
259.4010473591711
 20
381.8455453054595
 97
        0
 92
        7
 72
     0
 73
     1
 93
        6
 10
259.4010473591711
 20
381.8455453054595
 10
256.4010473591582
 20
381.8455453054595
 10
256.4010473591582
 20
381.5968104417472
 10
257.4010473591618
 20
381.5968104417472
 10
257.4010473591618
 20
378.095545305439
 10
259.4010473591711
 20
378.095545305439
 97
        0
 92
        7
 72
     0
 73
     1
 93
        4
 10
259.4010473591711
 20
378.095545305439
 10
257.4010473591618
 20
378.095545305439
 10
257.4010473591618
 20
364.4563619247477
 10
259.4010473591711
 20
364.4563619247477
 97
        0
 75
     0
 76
     1
 52
0.0
 41
1.000000000005131
 77
     0
 78
     2
 53
44.99999999999999
 43
-1834.399707754032
 44
-601.9421639682665
 45
-2.245064030278807
 46
2.245064030278807
 79
     0
 53
135.0
 43
-1834.399707754032
 44
-601.9421639682665
 45
-2.245064030278807
 46
-2.245064030278807
 79
     0
 47
0.1069143980357687
 98
        3
 10
258.5263123221025
 20
385.6254136445499
 10
258.3123597466174
 20
380.1727793275542
 10
258.2053846074352
 20
375.4685460096792
  0
LINE
  5
9FA
330
1F
100
AcDbEntity
  8
0
100
AcDbLine
 10
256.4010473591479
 20
381.5968104417472
 30
0.0
 11
257.4010473591618
 21
381.5968104417472
 31
0.0
  0
LINE
  5
9FB
330
1F
100
AcDbEntity
  8
0
100
AcDbLine
 10
257.4010473591618
 20
381.5968104417472
 30
0.0
 11
257.4010473591618
 21
360.129892220892
 31
0.0
  0
HATCH
  5
9FC
330
1F
100
AcDbEntity
  8
0
100
AcDbHatch
 10
0.0
 20
0.0
 30
0.0
210
0.0
220
0.0
230
1.0
  2
ANSI31
 70
     0
 71
     0
 91
        1
 92
        7
 72
     1
 73
     1
 93
       12
 10
256.4010473591582
 20
360.129892220892
 42
0.1989123673796687
 10
257.279727015595
 20
358.0085718773204
 42
0.0
 10
257.815260921539
 20
357.4730379713866
 42
-0.1989123673796199
 10
258.4010473591677
 20
356.0588244090046
 42
0.0
 10
258.4010473591677
 20
331.596810441492
 42
0.0
 10
259.4010473591711
 20
331.596810441492
 42
0.0
 10
259.4010473591711
 20
356.0588244090046
 42
0.1989123673795235
 10
258.522367702724
 20
358.1801447525742
 42
0.0
 10
257.9868337967905
 20
358.71567865851
 42
-0.1989123673796509
 10
257.4010473591618
 20
360.129892220892
 42
0.0
 10
257.4010473591618
 20
381.5968104417472
 42
0.0
 10
256.4010473591582
 20
381.5968104417472
 42
0.0
 97
        0
 75
     0
 76
     1
 52
0.0
 41
0.5000000000025655
 77
     0
 78
     1
 53
44.99999999999999
 43
-1834.399707754032
 44
-601.9421639682665
 45
-1.122532015139403
 46
1.122532015139403
 79
     0
 47
0.0739230489997991
 98
        1
 10
256.8982292197613
 20
363.5794395495449
  0
ARC
  5
9FD
330
1F
100
AcDbEntity
  8
0
100
AcDbCircle
 10
259.4010473591711
 20
360.1298922208897
 30
0.0
 40
3.000000000015393
100
AcDbArc
 50
180.0
 51
225.0000000000204
  0
LINE
  5
9FE
330
1F
100
AcDbEntity
  8
0
100
AcDbLine
 10
257.8152609215276
 20
357.4730379713866
 30
0.0
 11
257.279727015595
 21
358.0085718773204
 31
0.0
  0
LINE
  5
9FF
330
1F
100
AcDbEntity
  8
0
100
AcDbLine
 10
258.4010473591677
 20
356.0588244090046
 30
0.0
 11
258.4010473591677
 21
331.596810441492
 31
0.0
  0
LINE
  5
A00
330
1F
100
AcDbEntity
  8
0
100
AcDbLine
 10
258.4010473591677
 20
331.596810441492
 30
0.0
 11
259.4010473591711
 21
331.596810441492
 31
0.0
  0
LINE
  5
A01
330
1F
100
AcDbEntity
  8
0
 62
     4
100
AcDbLine
 10
356.509986664197
 20
318.5612514617834
 30
0.0
 11
356.509986664197
 21
289.5862514616364
 31
0.0
  0
LINE
  5
A02
330
1F
100
AcDbEntity
  8
0
 62
     2
100
AcDbLine
 10
359.2099866642161
 20
315.1129087108123
 30
0.0
 11
357.9099866642059
 21
315.1129087108123
 31
0.0
  0
LINE
  5
A03
330
1F
100
AcDbEntity
  8
0
  6
DASHED
 62
     1
 48
0.2
100
AcDbLine
 10
358.4099866642077
 20
320.1443354141066
 30
0.0
 11
358.4099866642077
 21
307.2362507598319
 31
0.0
  0
LINE
  5
A04
330
1F
100
AcDbEntity
  8
0
100
AcDbLine
 10
357.9099866642059
 20
316.0862507598793
 30
0.0
 11
357.9099866642059
 21
307.2362507598319
 31
0.0
  0
LINE
  5
A05
330
1F
100
AcDbEntity
  8
0
  6
DASHED
 62
     1
 48
0.2
100
AcDbLine
 10
358.4099866642077
 20
320.1443354141066
 30
0.0
 11
357.009986664201
 21
321.9137832183607
 31
0.0
  0
LINE
  5
A06
330
1F
100
AcDbEntity
  8
0
  6
DASHED
 62
     1
 48
0.2
100
AcDbLine
 10
357.009986664201
 20
329.0673909216727
 30
0.0
 11
357.009986664201
 21
321.9137832183607
 31
0.0
  0
LINE
  5
A07
330
1F
100
AcDbEntity
  8
0
100
AcDbLine
 10
356.509986664197
 20
328.7362514618414
 30
0.0
 11
356.509986664197
 21
288.7362514616269
 31
0.0
  0
LINE
  5
A08
330
1F
100
AcDbEntity
  8
0
 62
     2
100
AcDbLine
 10
169.7510473587036
 20
379.9705453054504
 30
0.0
 11
176.7486426229346
 21
378.0955453054413
 31
0.0
  0
LINE
  5
A09
330
1F
100
AcDbEntity
  8
0
 62
     2
100
AcDbLine
 10
169.7510473587036
 20
379.9705453054504
 30
0.0
 11
176.7486426229346
 21
381.8455453054595
 31
0.0
  0
HATCH
  5
A0A
330
1F
100
AcDbEntity
  8
0
100
AcDbHatch
 10
0.0
 20
0.0
 30
0.0
210
0.0
220
0.0
230
1.0
  2
ANSI37
 70
     0
 71
     0
 91
        1
 92
        7
 72
     1
 73
     1
 93
        8
 10
260.9010473591777
 20
400.0559138906732
 42
0.0
 10
268.9027886726376
 20
400.0559138906732
 42
0.0
 10
256.4010473591582
 20
412.5576552041604
 42
0.0
 10
256.4010473591582
 20
393.8852686451397
 42
0.0
 10
259.4010473591711
 20
393.8852686451397
 42
0.0
 10
259.4010473591711
 20
398.7786784849658
 42
-0.4663076581550193
 10
260.5746955368445
 20
399.763486237984
 42
0.0
 10
260.9010473591777
 20
399.7059416065025
 42
0.0
 97
        0
 75
     0
 76
     1
 52
0.0
 41
1.000000000005131
 77
     0
 78
     2
 53
44.99999999999999
 43
-1834.399707754032
 44
-601.9421639682665
 45
-2.245064030278807
 46
2.245064030278807
 79
     0
 53
135.0
 43
-1834.399707754032
 44
-601.9421639682665
 45
-2.245064030278807
 46
-2.245064030278807
 79
     0
 47
0.1081173693838218
 98
        1
 10
260.785378528125
 20
402.9671281777329
  0
LINE
  5
A0B
330
1F
100
AcDbEntity
  8
0
 62
     2
100
AcDbLine
 10
259.7510473591662
 20
384.2705453054735
 30
0.0
 11
259.7510473591662
 21
375.6705453054295
 31
0.0
  0
ARC
  5
A0C
330
1F
100
AcDbEntity
  8
0
100
AcDbCircle
 10
256.4010473591479
 20
356.0588244090046
 30
0.0
 40
2.000000000010262
100
AcDbArc
 50
0.0
 51
45.00000000002037
  0
LINE
  5
A0D
330
1F
100
AcDbEntity
  8
0
100
AcDbLine
 10
268.9027886726376
 20
400.0559138906754
 30
0.0
 11
256.4010473591479
 21
412.5576552041604
 31
0.0
  0
ARC
  5
A0E
330
1F
100
AcDbEntity
  8
0
100
AcDbCircle
 10
256.4010473591479
 20
356.0588244090046
 30
0.0
 40
3.000000000015393
100
AcDbArc
 50
0.0
 51
45.00000000002037
  0
ARC
  5
A0F
330
1F
100
AcDbEntity
  8
0
100
AcDbCircle
 10
259.4010473591711
 20
360.129892220892
 30
0.0
 40
2.000000000010262
100
AcDbArc
 50
180.0
 51
225.0000000000204
  0
LINE
  5
A10
330
1F
100
AcDbEntity
  8
0
100
AcDbLine
 10
258.522367702724
 20
358.1801447525764
 30
0.0
 11
257.9868337967905
 21
358.7156786585123
 31
0.0
  0
LINE
  5
A11
330
1F
100
AcDbEntity
  8
0
100
AcDbLine
 10
259.4010473591711
 20
364.45636192475
 30
0.0
 11
257.4010473591618
 21
364.45636192475
 31
0.0
  0
LINE
  5
A12
330
1F
100
AcDbEntity
  8
0
 62
     4
100
AcDbLine
 10
357.5599866642017
 20
318.5612514617834
 30
0.0
 11
357.5599866642017
 21
311.0862514617455
 31
0.0
  0
LINE
  5
A13
330
1F
100
AcDbEntity
  8
0
 62
     4
100
AcDbLine
 10
357.2099866641963
 20
318.5612514617834
 30
0.0
 11
357.2099866641963
 21
311.0862514617455
 31
0.0
  0
LINE
  5
A14
330
1F
100
AcDbEntity
  8
0
 62
     4
100
AcDbLine
 10
357.2099866641963
 20
311.0862514617455
 30
0.0
 11
357.5599866642017
 21
311.0862514617455
 31
0.0
  0
LINE
  5
A15
330
1F
100
AcDbEntity
  8
0
100
AcDbLine
 10
356.509986664197
 20
288.7362514616269
 30
0.0
 11
284.5099866638264
 21
288.7362514616269
 31
0.0
  0
LINE
  5
A16
330
1F
100
AcDbEntity
  8
0
100
AcDbLine
 10
356.509986664197
 20
328.7362514618414
 30
0.0
 11
284.5099866638264
 21
328.7362514618414
 31
0.0
  0
LINE
  5
A17
330
1F
100
AcDbEntity
  8
0
100
AcDbLine
 10
357.5599866642017
 20
307.2362507598319
 30
0.0
 11
357.5599866642017
 21
316.0862507598793
 31
0.0
  0
LINE
  5
A18
330
1F
100
AcDbEntity
  8
0
100
AcDbLine
 10
357.9099866642059
 20
316.0862507598793
 30
0.0
 11
357.5599866642017
 21
316.0862507598793
 31
0.0
  0
LINE
  5
A19
330
1F
100
AcDbEntity
  8
0
100
AcDbLine
 10
358.9099866642107
 20
306.0862507598273
 30
0.0
 11
358.9099866642107
 21
308.1129087107758
 31
0.0
  0
LINE
  5
A1A
330
1F
100
AcDbEntity
  8
0
 62
     2
100
AcDbLine
 10
292.909986663873
 20
311.6129087107928
 30
0.0
 11
298.4099866638974
 21
313.1379087108034
 31
0.0
  0
LINE
  5
A1B
330
1F
100
AcDbEntity
  8
0
 62
     2
100
AcDbLine
 10
292.909986663873
 20
311.6129087107928
 30
0.0
 11
298.4099866638974
 21
310.087908710787
 31
0.0
  0
LINE
  5
A1C
330
1F
100
AcDbEntity
  8
0
 62
     2
100
AcDbLine
 10
359.2099866642161
 20
308.1129087107758
 30
0.0
 11
357.9099866642059
 21
308.1129087107758
 31
0.0
  0
LINE
  5
A1D
330
1F
100
AcDbEntity
  8
0
 62
     2
100
AcDbLine
 10
359.2099866642161
 20
315.1129087108123
 30
0.0
 11
359.2099866642161
 21
308.1129087107758
 31
0.0
  0
LINE
  5
A1E
330
1F
100
AcDbEntity
  8
0
100
AcDbLine
 10
357.9099866642059
 20
315.1129087108123
 30
0.0
 11
357.9099866642059
 21
308.1129087107758
 31
0.0
  0
LINE
  5
A1F
330
1F
100
AcDbEntity
  8
0
 62
     2
100
AcDbLine
 10
357.9099866642059
 20
313.1379087108034
 30
0.0
 11
298.4099866638974
 21
313.1379087108034
 31
0.0
  0
LINE
  5
A20
330
1F
100
AcDbEntity
  8
0
 62
     2
100
AcDbLine
 10
357.9099866642059
 20
310.087908710787
 30
0.0
 11
298.4099866638974
 21
310.087908710787
 31
0.0
  0
LINE
  5
A21
330
1F
100
AcDbEntity
  8
0
100
AcDbLine
 10
378.9099866643155
 20
306.0862507598273
 30
0.0
 11
378.9099866643155
 21
306.563517423636
 31
0.0
  0
LINE
  5
A22
330
1F
100
AcDbEntity
  8
0
100
AcDbLine
 10
377.8544298068509
 20
306.643028479246
 30
0.0
 11
377.8544298068509
 21
309.6004648300828
 31
0.0
  0
LINE
  5
A23
330
1F
100
AcDbEntity
  8
0
100
AcDbLine
 10
359.2099866642161
 20
310.4394046051201
 30
0.0
 11
359.6891871130333
 21
310.4394046051201
 31
0.0
  0
LINE
  5
A24
330
1F
100
AcDbEntity
  8
0
100
AcDbLine
 10
358.9099866642107
 20
307.2644046051033
 30
0.0
 11
377.8544298068509
 21
307.2644046051033
 31
0.0
  0
LINE
  5
A26
330
1F
100
AcDbEntity
  8
役物
100
AcDbLine
 10
260.5746955368331
 20
399.7634862379863
 30
0.0
 11
268.7881760437335
 21
398.3152280190978
 31
0.0
  0
ARC
  5
A27
330
1F
100
AcDbEntity
  8
役物
100
AcDbCircle
 10
260.4010473591657
 20
330.5632934497495
 30
0.0
 40
0.650000000003335
100
AcDbArc
 50
180.0
 51
263.5632394731423
  0
ARC
  5
A28
330
1F
100
AcDbEntity
  8
役物
100
AcDbCircle
 10
383.9544923549854
 20
308.9504648301164
 30
0.0
 40
0.650000000003335
100
AcDbArc
 50
285.0000000003721
 51
90.00000000031267
  0
LINE
  5
A29
330
1F
100
AcDbEntity
  8
役物
100
AcDbLine
 10
260.5139186746501
 20
399.4188035244286
 30
0.0
 11
268.7273991815448
 21
397.9705453055425
 31
0.0
  0
LINE
  5
A2A
330
1F
100
AcDbEntity
  8
役物
100
AcDbLine
 10
260.9010473591675
 20
399.7059178372428
 30
0.0
 11
268.8948685661149
 21
399.7059178372428
 31
0.0
  0
LINE
  5
A2B
330
1F
100
AcDbEntity
  8
役物
100
AcDbLine
 10
259.7510473591662
 20
398.7786784849681
 30
0.0
 11
259.7510473591662
 21
330.5632934497495
 31
0.0
  0
ARC
  5
A2C
330
1F
100
AcDbEntity
  8
役物
100
AcDbCircle
 10
268.8601995329805
 20
399.0094360005054
 30
0.0
 40
0.6973441695178351
100
AcDbArc
 50
262.7154439326429
 51
87.66948533016037
  0
ARC
  5
A2D
330
1F
100
AcDbEntity
  8
役物
100
AcDbCircle
 10
268.8601995329805
 20
399.0094360005054
 30
0.0
 40
1.04734416951963
100
AcDbArc
 50
257.284556067415
 51
87.66948533016037
  0
LINE
  5
A2E
330
1F
100
AcDbEntity
  8
役物
100
AcDbLine
 10
260.3281781322269
 20
329.9173909216753
 30
0.0
 11
359.026131693148
 21
329.9173909216753
 31
0.0
  0
LINE
  5
A2F
330
1F
100
AcDbEntity
  8
役物
100
AcDbLine
 10
260.9010473591675
 20
400.0559138906732
 30
0.0
 11
260.9010473591675
 21
399.7059178372428
 31
0.0
  0
LINE
  5
A30
330
1F
100
AcDbEntity
  8
役物
100
AcDbLine
 10
259.4010473591597
 20
398.7786784849681
 30
0.0
 11
259.4010473591711
 21
330.5632934497472
 31
0.0
  0
LINE
  5
A31
330
1F
100
AcDbEntity
  8
役物
100
AcDbLine
 10
260.9010473591675
 20
400.0559138906732
 30
0.0
 11
268.9027886726774
 21
400.0559138906732
 31
0.0
  0
ARC
  5
A32
330
1F
100
AcDbEntity
  8
役物
100
AcDbCircle
 10
260.4010473591657
 20
398.7786784849681
 30
0.0
 40
0.650000000003335
100
AcDbArc
 50
79.99999999988893
 51
180.0
  0
ARC
  5
A33
330
1F
100
AcDbEntity
  8
役物
100
AcDbCircle
 10
260.4010473591657
 20
330.5632934497472
 30
0.0
 40
1.000000000005131
100
AcDbArc
 50
180.0
 51
264.8114736349577
  0
LINE
  5
A34
330
1F
100
AcDbEntity
  8
役物
100
AcDbLine
 10
260.3106142093284
 20
329.5673909216745
 30
0.0
 11
359.0261316931424
 21
329.5673909216745
 31
0.0
  0
ARC
  5
A35
330
1F
100
AcDbEntity
  8
役物
100
AcDbCircle
 10
260.4010473591657
 20
398.7786784849681
 30
0.0
 40
1.000000000005131
100
AcDbArc
 50
79.99999999988893
 51
180.0
  0
LINE
  5
A36
330
1F
100
AcDbEntity
  8
役物
100
AcDbLine
 10
360.6761316930272
 20
309.6004648299805
 30
0.0
 11
383.9544923549809
 21
309.6004648301169
 31
0.0
  0
ARC
  5
A37
330
1F
100
AcDbEntity
  8
役物
100
AcDbCircle
 10
360.6761316930272
 20
310.6004648299862
 30
0.0
 40
1.000000000005337
100
AcDbArc
 50
179.9999999995831
 51
270.0000000003127
  0
LINE
  5
A38
330
1F
100
AcDbEntity
  8
役物
100
AcDbLine
 10
360.6761316930158
 20
309.9504648299813
 30
0.0
 11
383.9544923549752
 21
309.9504648301178
 31
0.0
  0
ARC
  5
A39
330
1F
100
AcDbEntity
  8
役物
100
AcDbCircle
 10
360.6761316930112
 20
310.6004648299862
 30
0.0
 40
0.6500000000034697
100
AcDbArc
 50
179.9999999994789
 51
270.0000000003127
  0
LINE
  5
A3A
330
1F
100
AcDbEntity
  8
役物
100
AcDbLine
 10
384.1227247343013
 20
308.3226130430222
 30
0.0
 11
377.8544298068509
 21
306.6430284792483
 31
0.0
  0
LINE
  5
A3B
330
1F
100
AcDbEntity
  8
役物
100
AcDbLine
 10
377.8544298068509
 20
306.6430284792438
 30
0.0
 11
377.9450164726227
 21
306.3049544400366
 31
0.0
  0
LINE
  5
A3C
330
1F
100
AcDbEntity
  8
役物
100
AcDbLine
 10
384.2133114000901
 20
307.9845390038196
 30
0.0
 11
377.9450164726341
 21
306.3049544400502
 31
0.0
  0
LINE
  5
A3D
330
1F
100
AcDbEntity
  8
役物
100
AcDbLine
 10
360.0261316931528
 20
328.9173909216625
 30
0.0
 11
360.0261316930062
 21
310.6004648299907
 31
0.0
  0
ARC
  5
A3E
330
1F
100
AcDbEntity
  8
役物
100
AcDbCircle
 10
359.026131693148
 20
328.9173909216694
 30
0.0
 40
1.000000000005337
100
AcDbArc
 50
359.9999999994789
 51
90.0
  0
LINE
  5
A3F
330
1F
100
AcDbEntity
  8
役物
100
AcDbLine
 10
359.6761316931475
 20
328.9173909216671
 30
0.0
 11
359.6761316930178
 21
310.600464829993
 31
0.0
  0
ARC
  5
A40
330
1F
100
AcDbEntity
  8
役物
100
AcDbCircle
 10
359.0261316931424
 20
328.9173909216694
 30
0.0
 40
0.6500000000034697
100
AcDbArc
 50
359.9999999995831
 51
90.0
  0
ARC
  5
A41
330
1F
100
AcDbEntity
  8
役物
100
AcDbCircle
 10
383.9544923549854
 20
308.9504648301141
 30
0.0
 40
1.000000000005131
100
AcDbArc
 50
285.0000000003721
 51
90.00000000041687
  0
LINE
  5
A42
330
1F
100
AcDbEntity
  8
0
  6
DASHED
 62
     1
 48
0.2
100
AcDbLine
 10
257.9010473591602
 20
329.0673909216727
 30
0.0
 11
357.009986664201
 21
329.0673909216727
 31
0.0
  0
LINE
  5
A43
330
1F
100
AcDbEntity
  8
0
100
AcDbLine
 10
356.509986664197
 20
328.7362514618414
 30
0.0
 11
284.5099866638264
 21
288.7362514616269
 31
0.0
  0
XLINE
  5
AFF
330
1F
100
AcDbEntity
  8
0
100
AcDbXline
 10
530.9029236047668
 20
1008.40050628348
 30
0.0
 11
1.0
 21
0.0
 31
0.0
  0
TEXT
  5
B83
330
1F
100
AcDbEntity
  8
0
100
AcDbText
 10
352.58012349559
 20
369.8907145898685
 30
0.0
 40
8.0
  1
受木
100
AcDbText
  0
LINE
  5
B84
330
1F
100
AcDbEntity
  8
文字
100
AcDbLine
 10
351.0149461491021
 20
373.483048931147
 30
0.0
 11
344.0149461491041
 21
373.483048931147
 31
0.0
  0
LINE
  5
B85
330
1F
100
AcDbEntity
  8
文字
100
AcDbLine
 10
302.9894690979475
 20
302.4248382737795
 30
0.0
 11
344.0149461491041
 21
373.483048931147
 31
0.0
  0
MTEXT
  5
C01
102
{ACAD_XDICTIONARY
360
C02
102
}
330
1F
100
AcDbEntity
  8
WAKU
100
AcDbMText
 10
513.3297022101279
 20
58.65440301759059
 30
0.0
 40
5.0
 41
286.6702975011639
 46
0.0
 71
     1
 72
     5
  1
\pi-5,l5;・受木の寸法は、高さ36～45mm、幅は60～80mmの範囲で選定してください。幅30～40mmの受木を使用する場合は、ダブルで施工してください。
  7
WAKU
 73
     1
 44
1.0
1001
ACAD
1000
ACAD_MTEXT_COLUMN_INFO_BEGIN
1070
    75
1070
     2
1070
    79
1070
     0
1070
    76
1070
     1
1070
    78
1070
     0
1070
    48
1040
286.6702975011639
1070
    49
1040
12.5
1070
    50
1070
     1
1040
0.0
1000
ACAD_MTEXT_COLUMN_INFO_END
  0
TEXT
  5
C03
330
1F
100
AcDbEntity
  8
WAKU
100
AcDbText
 10
517.0955965898809
 20
78.49510384391186
 30
0.0
 40
5.0
  1
流れ長さ
  7
WAKU
100
AcDbText
  0
TEXT
  5
C04
330
1F
100
AcDbEntity
  8
WAKU
100
AcDbText
 10
708.3545903990126
 20
70.73441150501571
 30
0.0
 40
5.0
  1
改質アスファルトルーフィング
  7
WAKU
100
AcDbText
  0
TEXT
  5
C05
330
1F
100
AcDbEntity
  8
WAKU
100
AcDbText
 10
517.0955965898809
 20
86.55719081091495
 30
0.0
 40
5.0
  1
勾配
  7
WAKU
100
AcDbText
  0
TEXT
  5
C06
330
1F
100
AcDbEntity
  8
WAKU
100
AcDbText
 10
517.0955965898809
 20
70.73441150501571
 30
0.0
 40
5.0
  1
下葺き材
  7
WAKU
100
AcDbText
  0
TEXT
  5
C07
330
1F
100
AcDbEntity
  8
WAKU
100
AcDbText
 10
566.3326613421359
 20
78.49510384391186
 30
0.0
 40
5.0
  1
7ｍ以下
  7
WAKU
100
AcDbText
  0
TEXT
  5
C08
330
1F
100
AcDbEntity
  8
WAKU
100
AcDbText
 10
566.3326613421359
 20
70.73441150501571
 30
0.0
 40
5.0
  1
粘着層付き改質アスファルトルーフィング
  7
WAKU
100
AcDbText
  0
TEXT
  5
C09
330
1F
100
AcDbEntity
  8
WAKU
100
AcDbText
 10
708.3545903990126
 20
78.72727892447642
 30
0.0
 40
5.0
  1
20ｍ以下
  7
WAKU
100
AcDbText
  0
LINE
  5
C0A
330
1F
100
AcDbEntity
  8
WAKU
100
AcDbLine
 10
515.240636391648
 20
93.03959789782197
 30
0.0
 11
515.240636391648
 21
61.03959789782198
 31
0.0
  0
LINE
  5
C0B
330
1F
100
AcDbEntity
  8
0
100
AcDbLine
 10
799.9999997112918
 20
93.03959789782197
 30
0.0
 11
799.9999997112918
 21
61.03959789782198
 31
0.0
  0
LINE
  5
C0C
330
1F
100
AcDbEntity
  8
WAKU
100
AcDbLine
 10
799.9999997112918
 20
69.03959789782198
 30
0.0
 11
515.240636391648
 21
69.03959789782198
 31
0.0
  0
LINE
  5
C0D
330
1F
100
AcDbEntity
  8
WAKU
100
AcDbLine
 10
799.9999997112918
 20
77.03959789782198
 30
0.0
 11
515.240636391648
 21
77.03959789782198
 31
0.0
  0
LINE
  5
C0E
330
1F
100
AcDbEntity
  8
WAKU
100
AcDbLine
 10
799.9999997112918
 20
85.03959789782198
 30
0.0
 11
515.240636391648
 21
85.03959789782198
 31
0.0
  0
LINE
  5
C0F
330
1F
100
AcDbEntity
  8
WAKU
100
AcDbLine
 10
799.9999997112918
 20
93.03959789782197
 30
0.0
 11
515.240636391648
 21
93.03959789782197
 31
0.0
  0
LINE
  5
C10
330
1F
100
AcDbEntity
  8
WAKU
100
AcDbLine
 10
564.8307402818845
 20
93.03959789782197
 30
0.0
 11
564.8307402818845
 21
61.03959789782198
 31
0.0
  0
LINE
  5
C11
330
1F
100
AcDbEntity
  8
WAKU
100
AcDbLine
 10
707.8018716435235
 20
93.03959789782197
 30
0.0
 11
707.8018716435235
 21
61.03959789782198
 31
0.0
  0
TEXT
  5
C12
330
1F
100
AcDbEntity
  8
WAKU
100
AcDbText
 10
513.3297022101279
 20
104.6186652745802
 30
0.0
 40
5.0
  1
・勾配によって使用する下葺き材が異なりますので、施工前に下葺き材の種類を確認してください。
  7
WAKU
100
AcDbText
  0
TEXT
  5
C13
330
1F
100
AcDbEntity
  8
WAKU
100
AcDbText
 10
566.3326613421359
 20
86.0163644859196
 30
0.0
 40
5.0
  1
2.5寸～3.5寸未満
  7
WAKU
100
AcDbText
  0
TEXT
  5
C14
330
1F
100
AcDbEntity
  8
WAKU
100
AcDbText
 10
708.3545903990126
 20
86.40743574639731
 30
0.0
 40
5.0
  1
3.5寸以上
  7
WAKU
100
AcDbText
  0
TEXT
  5
C15
330
1F
100
AcDbEntity
  8
WAKU
100
AcDbText
 10
520.4637102084526
 20
96.33141398394347
 30
0.0
 40
5.0
  1
3.5寸未満の勾配の屋根では、本体の横ジョイント部全てにジョイント下地を施工してください。
  7
WAKU
100
AcDbText
  0
LINE
  5
C16
330
1F
100
AcDbEntity
  8
WAKU
100
AcDbLine
 10
799.9999997112918
 20
61.03959789782198
 30
0.0
 11
515.240636391648
 21
61.03959789782198
 31
0.0
  0
TEXT
  5
C17
330
1F
100
AcDbEntity
  8
WAKU
100
AcDbText
 10
517.0955965898809
 20
62.73441150501572
 30
0.0
 40
5.0
  1
ジョイント下地
  7
WAKU
100
AcDbText
  0
TEXT
  5
C18
330
1F
100
AcDbEntity
  8
WAKU
100
AcDbText
 10
566.3326613421359
 20
62.01636448591961
 30
0.0
 40
5.0
  1
本体の横ジョイント部に施工
  7
WAKU
100
AcDbText
  0
TEXT
  5
C19
330
1F
100
AcDbEntity
  8
WAKU
100
AcDbText
 10
708.3545903990126
 20
62.01636448591961
 30
0.0
 40
5.0
  1
無しも可
  7
WAKU
100
AcDbText
  0
VIEWPORT
  5
564
102
{ACAD_XDICTIONARY
360
565
102
}
330
D2
100
AcDbEntity
 67
     1
  8
0
100
AcDbViewport
 10
209.914346037452
 20
148.487996499208
 30
0.0
 40
776.8649315960914
 41
314.2260000000001
 68
     1
 69
     1
 12
209.914346037452
 22
148.487996499208
 13
0.0
 23
0.0
 14
10.0
 24
10.0
 15
10.0
 25
10.0
 16
0.0
 26
0.0
 36
1.0
 17
0.0
 27
0.0
 37
0.0
 42
50.0
 43
0.0
 44
0.0
 45
314.2260000000001
 50
0.0
 51
0.0
 72
  1000
 90
   819232
  1

281
     0
 71
     1
 74
     0
110
0.0
120
0.0
130
0.0
111
1.0
121
0.0
131
0.0
112
0.0
122
1.0
132
0.0
 79
     0
146
0.0
170
     0
 61
     5
348
F5
292
     1
282
     1
141
0.0
142
0.0
 63
   250
421
  3355443
  0
VIEWPORT
  5
56F
102
{ACAD_XDICTIONARY
360
570
102
}
330
D2
100
AcDbEntity
 67
     1
  8
0
100
AcDbViewport
 10
209.9999998805998
 20
148.5000005031572
 30
0.0
 40
420.0
 41
297.0
 68
     2
 69
     2
 12
420.0
 22
297.0
 13
0.0
 23
0.0
 14
2.5
 24
2.5
 15
10.0
 25
10.0
 16
0.0
 26
0.0
 36
1.0
 17
0.0
 27
0.0
 37
0.0
 42
50.0
 43
0.0
 44
0.0
 45
599.3674698795181
 50
0.0
 51
0.0
 72
   100
 90
   835680
  1

281
     0
 71
     1
 74
     0
110
0.0
120
0.0
130
0.0
111
1.0
121
0.0
131
0.0
112
0.0
122
1.0
132
0.0
 79
     0
146
0.0
170
     0
 61
     5
348
F5
292
     1
282
     1
141
0.0
142
0.0
 63
   250
421
  3355443
  0
ENDSEC
  0
SECTION
  2
OBJECTS
  0
DICTIONARY
  5
C
330
0
100
AcDbDictionary
281
     1
  3
ACAD_CIP_PREVIOUS_PRODUCT_INFO
350
216
  3
ACAD_COLOR
350
6B
  3
ACAD_DETAILVIEWSTYLE
350
21B
  3
ACAD_GROUP
350
D
  3
ACAD_LAYOUT
350
1A
  3
ACAD_MATERIAL
350
6A
  3
ACAD_MLEADERSTYLE
350
12D
  3
ACAD_MLINESTYLE
350
17
  3
ACAD_PLOTSETTINGS
350
19
  3
ACAD_PLOTSTYLENAME
350
E
  3
ACAD_RENDER_ACTIVE_RAPIDRT_SETTINGS
350
FAD
  3
ACAD_RENDER_ACTIVE_SETTINGS
350
FC3
  3
ACAD_RENDER_RAPIDRT_SETTINGS
350
FA6
  3
ACAD_SCALELIST
350
10C
  3
ACAD_SECTIONVIEWSTYLE
350
219
  3
ACAD_TABLESTYLE
350
7E
  3
ACAD_VISUALSTYLE
350
EF
  3
ACDB_RECOMPOSE_DATA
350
10BB
  3
AcDbVariableDictionary
350
5E
  3
AcDsDecomposeData
350
10C1
  0
DICTIONARY
  5
5E7
330
8
100
AcDbDictionary
280
     1
281
     1
  0
DICTIONARY
  5
1FF
330
2
100
AcDbDictionary
280
     1
281
     1
  3
ACAD_LAYERSTATES
360
200
  0
DICTIONARY
  5
13C
330
10
100
AcDbDictionary
280
     1
281
     1
  0
DICTIONARY
  5
245
330
244
100
AcDbDictionary
280
     1
281
     1
  0
DICTIONARY
  5
53A
330
539
100
AcDbDictionary
280
     1
281
     1
  0
DICTIONARY
  5
640
330
63F
100
AcDbDictionary
280
     1
281
     1
  0
DICTIONARY
  5
642
330
641
100
AcDbDictionary
280
     1
281
     1
  0
DICTIONARY
  5
648
330
647
100
AcDbDictionary
280
     1
281
     1
  0
DICTIONARY
  5
1CE
330
1F
100
AcDbDictionary
280
     1
281
     1
  0
DICTIONARY
  5
C02
330
C01
100
AcDbDictionary
280
     1
281
     1
  0
DICTIONARY
  5
565
330
564
100
AcDbDictionary
280
     1
281
     1
  3
ASDK_XREC_ANNOTATION_SCALE_INFO
360
566
  0
DICTIONARY
  5
570
330
56F
100
AcDbDictionary
280
     1
281
     1
  3
ASDK_XREC_ANNOTATION_SCALE_INFO
360
571
  0
XRECORD
  5
216
102
{ACAD_REACTORS
330
C
102
}
330
C
100
AcDbXrecord
280
     1
300
ACD
300
2023
300

  0
DICTIONARY
  5
6B
102
{ACAD_REACTORS
330
C
102
}
330
C
100
AcDbDictionary
281
     1
  0
DICTIONARY
  5
21B
102
{ACAD_REACTORS
330
C
102
}
330
C
100
AcDbDictionary
281
     1
  3
Metric50
350
21C
  0
DICTIONARY
  5
D
102
{ACAD_REACTORS
330
C
102
}
330
C
100
AcDbDictionary
281
     1
  0
DICTIONARY
  5
1A
102
{ACAD_REACTORS
330
C
102
}
330
C
100
AcDbDictionary
281
     1
  3
Model
350
22
  3
wrp007-07-01
350
D3
  0
DICTIONARY
  5
6A
102
{ACAD_REACTORS
330
C
102
}
330
C
100
AcDbDictionary
281
     1
  3
ByBlock
350
ED
  3
ByLayer
350
EC
  3
Global
350
EE
  0
DICTIONARY
  5
12D
102
{ACAD_REACTORS
330
C
102
}
330
C
100
AcDbDictionary
281
     1
  3
Standard
350
12E
  0
DICTIONARY
  5
17
102
{ACAD_REACTORS
330
C
102
}
330
C
100
AcDbDictionary
281
     1
  3
Standard
350
18
  0
DICTIONARY
  5
19
102
{ACAD_REACTORS
330
C
102
}
330
C
100
AcDbDictionary
281
     1
  0
ACDBDICTIONARYWDFLT
  5
E
102
{ACAD_REACTORS
330
C
102
}
330
C
100
AcDbDictionary
281
     1
  3
Normal
350
F
  3
スタイル 1
350
651
100
AcDbDictionaryWithDefault
340
F
  0
RAPIDRTRENDERSETTINGS
  5
FAD
102
{ACAD_REACTORS
330
C
102
}
330
C
100
AcDbRenderSettings
 90
        2
  1
中
290
     1
290
     0
290
     1
290
     1
  1

  1
5 レンダリング レベルを適用
 90
        0
100
AcDbRapidRTRenderSettings
 90
        3
 70
     0
 90
        5
 90
        1
 70
     1
 70
     2
 40
3.0
 40
3.0
290
     1
  0
MENTALRAYRENDERSETTINGS
  5
FC3
102
{ACAD_XDICTIONARY
360
FC4
102
}
102
{ACAD_REACTORS
330
C
102
}
330
C
100
AcDbRenderSettings
 90
        2
  1
中間
290
     1
290
     1
290
     1
290
     1
  1

  1

 90
        0
100
AcDbMentalRayRenderSettings
 90
        2
 90
        0
 90
        1
 70
     2
 40
3.0
 40
3.0
 40
0.0500000007450581
 40
0.0500000007450581
 40
0.0500000007450581
 40
0.0500000007450581
 70
     0
290
     0
290
     1
 90
        5
 90
        5
 90
        5
290
     0
 90
      500
290
     0
 40
1.0
 90
    10000
 90
        5
 90
        5
 90
        5
290
     0
 90
      200
290
     0
290
     0
290
     0
 40
1.0
 40
1.0
 40
1500.0
 70
     0
 70
     0
 40
10.0
 70
     0
 70
     0
290
     0
  1

 90
       32
 70
     0
 90
     1048
290
     0
 40
1.0
  0
DICTIONARY
  5
FA6
102
{ACAD_REACTORS
330
C
102
}
330
C
100
AcDbDictionary
281
     1
  3
オーバーナイト品質
350
FAC
  3
コーヒー ブレイク品質
350
FAA
  3
ランチ タイム品質
350
FAB
  3
中
350
FA8
  3
低
350
FA7
  3
高
350
FA9
  0
DICTIONARY
  5
10C
102
{ACAD_REACTORS
330
C
102
}
330
C
100
AcDbDictionary
281
     1
  3
A0
350
10D
  3
A1
350
1BE
  3
A2
350
1BF
  3
A3
350
1C0
  3
A4
350
1C1
  3
A5
350
1C2
  3
A6
350
1C3
  3
A7
350
1C4
  3
A8
350
1C5
  3
A9
350
1C6
  3
B0
350
1C7
  3
B1
350
1C8
  3
B2
350
1C9
  3
B3
350
1CA
  3
B4
350
1CB
  3
B5
350
1CC
  3
B6
350
1CD
  0
DICTIONARY
  5
219
102
{ACAD_REACTORS
330
C
102
}
330
C
100
AcDbDictionary
281
     1
  3
Metric50
350
21A
  0
DICTIONARY
  5
7E
102
{ACAD_REACTORS
330
C
102
}
330
C
100
AcDbDictionary
281
     1
  3
Standard
350
7F
  0
DICTIONARY
  5
EF
102
{ACAD_REACTORS
330
C
102
}
330
C
100
AcDbDictionary
281
     1
  3
2dWireframe
350
F5
  3
Basic
350
F4
  3
Brighten
350
FB
  3
ColorChange
350
FF
  3
Conceptual
350
F8
  3
Dim
350
FA
  3
EdgeColorOff
350
1E6
  3
Facepattern
350
FE
  3
Flat
350
F0
  3
FlatWithEdges
350
F1
  3
Gouraud
350
F2
  3
GouraudWithEdges
350
F3
  3
Hidden
350
F7
  3
JitterOff
350
1E4
  3
Linepattern
350
FD
  3
OverhangOff
350
1E5
  3
Realistic
350
F9
  3
Shaded
350
1F3
  3
Shaded with edges
350
1F2
  3
Shades of Gray
350
1EF
  3
Sketchy
350
1F0
  3
Thicken
350
FC
  3
Wireframe
350
F6
  3
X-Ray
350
1F1
  0
XRECORD
  5
10BB
102
{ACAD_REACTORS
330
C
102
}
330
C
100
AcDbXrecord
280
     1
 90
        1
330
7F
330
C01
  0
DICTIONARY
  5
5E
102
{ACAD_REACTORS
330
C
102
}
330
C
100
AcDbDictionary
281
     1
  3
CANNOSCALE
350
146
  3
CMLEADERSTYLE
350
145
  3
CTABLESTYLE
350
84
  3
CVIEWDETAILSTYLE
350
227
  3
CVIEWSECTIONSTYLE
350
228
  3
DIMASSOC
350
5F
  3
HIDETEXT
350
63
  3
LAYEREVAL
350
1AE
  3
LAYERNOTIFY
350
1AF
  3
LIGHTINGUNITS
350
625
  3
MSLTSCALE
350
624
  0
DICTIONARY
  5
10C1
102
{ACAD_REACTORS
330
C
102
}
330
C
100
AcDbDictionary
281
     1
  3
AcDsRecords
350
10C3
  3
AcDsSchemas
350
10C2
1001
ACAD
1070
     2
  0
DICTIONARY
  5
200
102
{ACAD_REACTORS
330
1FF
102
}
330
1FF
100
AcDbDictionary
281
     1
  0
XRECORD
  5
566
102
{ACAD_REACTORS
330
565
102
}
330
565
100
AcDbXrecord
280
     1
 90
        1
340
10D
  0
XRECORD
  5
571
102
{ACAD_REACTORS
330
570
102
}
330
570
100
AcDbXrecord
280
     1
 90
        1
340
10D
  0
ACDBDETAILVIEWSTYLE
  5
21C
102
{ACAD_XDICTIONARY
360
10C6
102
}
102
{ACAD_REACTORS
330
21B
102
}
330
21B
100
AcDbModelDocViewStyle
 70
     0
  3
Metric50
290
     0
100
AcDbDetailViewStyle
 70
     0
 71
     0
 90
        3
 71
     1
340
11
 62
   256
 40
5.0
340
0
 62
   256
 40
5.0
300

 40
0.0
280
     1
 71
     2
340
16
 90
       25
 62
   256
 71
     3
340
11
 62
   256
 40
5.0
 90
        0
 40
15.0
 90
        1
300
%<\AcVar ViewDetailId>% (%<\AcVar ViewScale \f "%sn">%)
 71
     4
340
16
 90
       25
 62
   256
340
16
 90
       25
 62
   256
280
     0
  0
LAYOUT
  5
22
102
{ACAD_XDICTIONARY
360
205
102
}
102
{ACAD_REACTORS
330
1A
102
}
330
1A
100
AcDbPlotSettings
  1

  2
none_device
  4
A3
  6

 40
3.174999952316284
 41
3.174999952316284
 42
3.17498779296875
 43
3.17498779296875
 44
420.1583251953125
 45
297.0318298339844
 46
-3.100637915782641
 47
-3.162477937356328
 48
30.00000000000046
 49
21.99999999999977
140
810.0000000000004
141
571.9999999999995
142
1.0
143
2.0
 70
 11940
 72
     1
 73
     0
 74
     1
  7
monochrome.ctb
 75
     0
147
0.3640281859311192
 76
     0
 77
     4
 78
   300
148
0.0128164049386896
149
0.0090630292066862
100
AcDbLayout
  1
Model
 70
     1
 71
     0
 10
0.0
 20
0.0
 11
12.0
 21
9.0
 12
0.0
 22
0.0
 32
0.0
 14
0.0
 24
0.0
 34
0.0
 15
0.0
 25
0.0
 35
0.0
146
0.0
 13
0.0
 23
0.0
 33
0.0
 16
1.0
 26
0.0
 36
0.0
 17
0.0
 27
1.0
 37
0.0
 76
     0
330
1F
331
EA
1001
ACAD_PSEXT
1000
Adobe PDF.pc3
1000
Adobe PDF Converter
1000
Documents\*.pdf
1000

1070
     0
  0
LAYOUT
  5
D3
102
{ACAD_XDICTIONARY
360
5EB
102
}
102
{ACAD_REACTORS
330
1A
102
}
330
1A
100
AcDbPlotSettings
  1

  2
Adobe PDF.pc3
  4
A3
  6

 40
0.1481666713953018
 41
0.010498046875
 42
0.0
 43
0.0
 44
420.0
 45
297.0
 46
-0.08693630750588
 47
-0.012099455818742
 48
0.0
 49
0.0
140
0.0
141
0.0
142
1.0
143
1.0
 70
   550
 72
     1
 73
     0
 74
     1
  7
monochrome.ctb
 75
    16
147
0.9999999999999998
 76
     1
 77
     2
 78
   300
148
0.0244235986585864
149
0.0136049097358182
100
AcDbLayout
  1
wrp007-07-01
 70
     1
 71
     1
 10
-0.0856539625480082
 20
-0.0120035007920763
 11
419.9143460374521
 21
296.987996499208
 12
0.0
 22
0.0
 32
0.0
 14
-0.0244235986585864
 24
-0.0136049097358182
 34
-0.0000000349181948
 15
420.0012823449579
 25
297.0000959550267
 35
0.0000000814935746
146
0.0
 13
0.0
 23
0.0
 33
0.0
 16
1.0
 26
0.0
 36
0.0
 17
0.0
 27
1.0
 37
0.0
 76
     0
330
D2
331
564
1001
ACAD_PSEXT
1000
Adobe PDF.pc3
1000
Adobe PDF Converter
1000
Documents\*.pdf
1000

1070
     0
  0
MATERIAL
  5
ED
102
{ACAD_XDICTIONARY
360
1F9
102
}
102
{ACAD_REACTORS
330
6A
102
}
330
6A
100
AcDbMaterial
  1
ByBlock
 94
       63
  0
MATERIAL
  5
EC
102
{ACAD_XDICTIONARY
360
1F7
102
}
102
{ACAD_REACTORS
330
6A
102
}
330
6A
100
AcDbMaterial
  1
ByLayer
 94
       63
  0
MATERIAL
  5
EE
102
{ACAD_XDICTIONARY
360
173
102
}
102
{ACAD_REACTORS
330
6A
102
}
330
6A
100
AcDbMaterial
  1
Global
 43
0.0007999999797903
 43
0.0
 43
0.0
 43
0.0
 43
0.0
 43
0.0007999999797903
 43
0.0
 43
0.0
 43
0.0
 43
0.0
 43
1.0
 43
0.0
 43
0.0
 43
0.0
 43
0.0
 43
1.0
 49
0.0007999999797903
 49
0.0
 49
0.0
 49
0.0
 49
0.0
 49
0.0007999999797903
 49
0.0
 49
0.0
 49
0.0
 49
0.0
 49
1.0
 49
0.0
 49
0.0
 49
0.0
 49
0.0
 49
1.0
142
0.0007999999797903
142
0.0
142
0.0
142
0.0
142
0.0
142
0.0007999999797903
142
0.0
142
0.0
142
0.0
142
0.0
142
1.0
142
0.0
142
0.0
142
0.0
142
0.0
142
1.0
144
0.0007999999797903
144
0.0
144
0.0
144
0.0
144
0.0
144
0.0007999999797903
144
0.0
144
0.0
144
0.0
144
0.0
144
1.0
144
0.0
144
0.0
144
0.0
144
0.0
144
1.0
 94
       63
1001
ACAD
1070
    -1
1070
     3
1070
     0
1000

1071
        0
1070
     0
  0
MLEADERSTYLE
  5
12E
102
{ACAD_REACTORS
330
12D
102
}
330
12D
100
AcDbMLeaderStyle
179
     2
170
     2
171
     1
172
     0
 90
        2
 40
0.0
 41
0.0
173
     1
 91
-1056964608
340
14
 92
       -2
290
     1
 42
2.0
291
     1
 43
8.0
  3
Standard
 44
4.0
300

342
11
174
     1
178
     1
175
     1
176
     0
 93
-1056964608
 45
4.0
292
     0
297
     0
 46
4.0
 94
-1056964608
 47
1.0
 49
1.0
140
1.0
293
     1
141
0.0
294
     1
177
     0
142
1.0
295
     0
296
     0
143
3.75
271
     0
272
     9
273
     9
298
     0
  0
MLINESTYLE
  5
18
102
{ACAD_REACTORS
330
17
102
}
330
17
100
AcDbMlineStyle
  2
STANDARD
 70
     0
  3

 62
   256
 51
90.0
 52
90.0
 71
     2
 49
0.5
 62
   256
  6
BYLAYER
 49
-0.5
 62
   256
  6
BYLAYER
  0
ACDBPLACEHOLDER
  5
F
102
{ACAD_REACTORS
330
E
102
}
330
E
  0
ACDBPLACEHOLDER
  5
651
102
{ACAD_REACTORS
330
E
102
}
330
E
  0
DICTIONARY
  5
FC4
330
FC3
100
AcDbDictionary
280
     1
281
     1
  3
ACAD_XREC_ROUNDTRIP
360
FC6
  3
ADSK_XREC_MENTALRAYSETTINGSINFO
360
FC5
  0
RAPIDRTRENDERSETTINGS
  5
FAC
102
{ACAD_REACTORS
330
FA6
102
}
330
FA6
100
AcDbRenderSettings
 90
        2
  1
オーバーナイト品質
290
     1
290
     0
290
     1
290
     1
  1

  1
12 時間のレンダリング
 90
        5
100
AcDbRapidRTRenderSettings
 90
        3
 70
     1
 90
        1
 90
      720
 70
     2
 70
     2
 40
3.0
 40
3.0
290
     1
  0
RAPIDRTRENDERSETTINGS
  5
FAA
102
{ACAD_REACTORS
330
FA6
102
}
330
FA6
100
AcDbRenderSettings
 90
        2
  1
コーヒー ブレイク品質
290
     1
290
     0
290
     1
290
     1
  1

  1
10 分のレンダリング
 90
        3
100
AcDbRapidRTRenderSettings
 90
        3
 70
     1
 90
        1
 90
       10
 70
     1
 70
     2
 40
3.0
 40
3.0
290
     1
  0
RAPIDRTRENDERSETTINGS
  5
FAB
102
{ACAD_REACTORS
330
FA6
102
}
330
FA6
100
AcDbRenderSettings
 90
        2
  1
ランチ タイム品質
290
     1
290
     0
290
     1
290
     1
  1

  1
60 分のレンダリング
 90
        4
100
AcDbRapidRTRenderSettings
 90
        3
 70
     1
 90
        1
 90
       60
 70
     2
 70
     2
 40
3.0
 40
3.0
290
     1
  0
RAPIDRTRENDERSETTINGS
  5
FA8
102
{ACAD_REACTORS
330
FA6
102
}
330
FA6
100
AcDbRenderSettings
 90
        2
  1
中
290
     1
290
     0
290
     1
290
     1
  1

  1
5 レンダリング レベルを適用
 90
        1
100
AcDbRapidRTRenderSettings
 90
        3
 70
     0
 90
        5
 90
        1
 70
     1
 70
     2
 40
3.0
 40
3.0
290
     1
  0
RAPIDRTRENDERSETTINGS
  5
FA7
102
{ACAD_REACTORS
330
FA6
102
}
330
FA6
100
AcDbRenderSettings
 90
        2
  1
低
290
     1
290
     0
290
     1
290
     1
  1

  1
1 レンダリング レベルを適用
 90
        0
100
AcDbRapidRTRenderSettings
 90
        3
 70
     0
 90
        1
 90
        1
 70
     0
 70
     2
 40
3.0
 40
3.0
290
     1
  0
RAPIDRTRENDERSETTINGS
  5
FA9
102
{ACAD_REACTORS
330
FA6
102
}
330
FA6
100
AcDbRenderSettings
 90
        2
  1
高
290
     1
290
     0
290
     1
290
     1
  1

  1
10 レンダリング レベルを適用
 90
        2
100
AcDbRapidRTRenderSettings
 90
        3
 70
     0
 90
       10
 90
        1
 70
     2
 70
     2
 40
3.0
 40
3.0
290
     1
  0
SCALE
  5
10D
102
{ACAD_REACTORS
330
10C
102
}
330
10C
100
AcDbScale
 70
     0
300
1:1
140
1.0
141
1.0
290
     1
  0
SCALE
  5
1BE
102
{ACAD_REACTORS
330
10C
102
}
330
10C
100
AcDbScale
 70
     0
300
1:2
140
1.0
141
2.0
290
     0
  0
SCALE
  5
1BF
102
{ACAD_REACTORS
330
10C
102
}
330
10C
100
AcDbScale
 70
     0
300
1:4
140
1.0
141
4.0
290
     0
  0
SCALE
  5
1C0
102
{ACAD_REACTORS
330
10C
102
}
330
10C
100
AcDbScale
 70
     0
300
1:5
140
1.0
141
5.0
290
     0
  0
SCALE
  5
1C1
102
{ACAD_REACTORS
330
10C
102
}
330
10C
100
AcDbScale
 70
     0
300
1:8
140
1.0
141
8.0
290
     0
  0
SCALE
  5
1C2
102
{ACAD_REACTORS
330
10C
102
}
330
10C
100
AcDbScale
 70
     0
300
1:10
140
1.0
141
10.0
290
     0
  0
SCALE
  5
1C3
102
{ACAD_REACTORS
330
10C
102
}
330
10C
100
AcDbScale
 70
     0
300
1:16
140
1.0
141
16.0
290
     0
  0
SCALE
  5
1C4
102
{ACAD_REACTORS
330
10C
102
}
330
10C
100
AcDbScale
 70
     0
300
1:20
140
1.0
141
20.0
290
     0
  0
SCALE
  5
1C5
102
{ACAD_REACTORS
330
10C
102
}
330
10C
100
AcDbScale
 70
     0
300
1:30
140
1.0
141
30.0
290
     0
  0
SCALE
  5
1C6
102
{ACAD_REACTORS
330
10C
102
}
330
10C
100
AcDbScale
 70
     0
300
1:40
140
1.0
141
40.0
290
     0
  0
SCALE
  5
1C7
102
{ACAD_REACTORS
330
10C
102
}
330
10C
100
AcDbScale
 70
     0
300
1:50
140
1.0
141
50.0
290
     0
  0
SCALE
  5
1C8
102
{ACAD_REACTORS
330
10C
102
}
330
10C
100
AcDbScale
 70
     0
300
1:100
140
1.0
141
100.0
290
     0
  0
SCALE
  5
1C9
102
{ACAD_REACTORS
330
10C
102
}
330
10C
100
AcDbScale
 70
     0
300
2:1
140
2.0
141
1.0
290
     0
  0
SCALE
  5
1CA
102
{ACAD_REACTORS
330
10C
102
}
330
10C
100
AcDbScale
 70
     0
300
4:1
140
4.0
141
1.0
290
     0
  0
SCALE
  5
1CB
102
{ACAD_REACTORS
330
10C
102
}
330
10C
100
AcDbScale
 70
     0
300
8:1
140
8.0
141
1.0
290
     0
  0
SCALE
  5
1CC
102
{ACAD_REACTORS
330
10C
102
}
330
10C
100
AcDbScale
 70
     0
300
10:1
140
10.0
141
1.0
290
     0
  0
SCALE
  5
1CD
102
{ACAD_REACTORS
330
10C
102
}
330
10C
100
AcDbScale
 70
     0
300
100:1
140
100.0
141
1.0
290
     0
  0
ACDBSECTIONVIEWSTYLE
  5
21A
102
{ACAD_XDICTIONARY
360
10C4
102
}
102
{ACAD_REACTORS
330
219
102
}
330
219
100
AcDbModelDocViewStyle
 70
     0
  3
Metric50
290
     0
100
AcDbSectionViewStyle
 70
     0
 71
     0
 90
      102
 71
     1
340
11
 62
   256
 40
5.0
340
0
340
0
 62
   256
 40
5.0
300
I, O, Q, S, X, Z
 40
10.0
 90
        0
 40
2.5
 90
        0
 71
     2
340
16
 90
       25
 62
   256
340
16
 90
       50
 62
   256
 40
5.0
 40
2.5
 40
5.0
 71
     3
340
11
 62
   256
 40
5.0
 90
        0
 40
15.0
 90
        1
300
%<\AcVar ViewSectionStartId>%-%<\AcVar ViewSectionEndId>% (%<\AcVar ViewScale \f "%sn">%)
 71
     4
 62
   256
 62
   257
300
ANSI31
 40
1.0
 90
        0
290
     0
290
     0
 90
        6
 40
0.0
 40
1.570796326794896
 40
0.2617993877991494
 40
1.308996938995747
 40
-0.2617993877991494
 40
1.832595714594046
  0
TABLESTYLE
  5
7F
102
{ACAD_XDICTIONARY
360
162
102
}
102
{ACAD_REACTORS
330
7E
102
}
330
7E
100
AcDbTableStyle
280
     0
  3
Standard
 70
     0
 71
     0
 40
1.5
 41
1.5
280
     0
281
     0
  7
Standard
140
4.5
170
     2
 62
     0
 63
     7
283
     0
 90
      512
 91
        0
  1

274
    -2
284
     1
 64
     0
275
    -2
285
     1
 65
     0
276
    -2
286
     1
 66
     0
277
    -2
287
     1
 67
     0
278
    -2
288
     1
 68
     0
279
    -2
289
     1
 69
     0
  7
Standard
140
6.0
170
     5
 62
     0
 63
     7
283
     0
 90
      512
 91
        0
  1

274
    -2
284
     1
 64
     0
275
    -2
285
     1
 65
     0
276
    -2
286
     1
 66
     0
277
    -2
287
     1
 67
     0
278
    -2
288
     1
 68
     0
279
    -2
289
     1
 69
     0
  7
Standard
140
4.5
170
     5
 62
     0
 63
     7
283
     0
 90
      512
 91
        0
  1

274
    -2
284
     1
 64
     0
275
    -2
285
     1
 65
     0
276
    -2
286
     1
 66
     0
277
    -2
287
     1
 67
     0
278
    -2
288
     1
 68
     0
279
    -2
289
     1
 69
     0
  0
VISUALSTYLE
  5
F5
102
{ACAD_REACTORS
330
EF
102
}
330
EF
100
AcDbVisualStyle
  2
2dWireframe
 70
     4
177
     3
291
     0
 70
    58
 90
        0
176
     1
 90
        2
176
     1
 90
        1
176
     1
 90
        0
176
     1
 40
0.6
176
     1
 40
30.0
176
     1
 62
     7
420
 16777215
176
     1
 90
        1
176
     1
 90
        4
176
     1
 62
     7
176
     1
 62
   257
176
     1
 90
        1
176
     1
 90
        1
176
     1
 40
1.0
176
     1
 90
        0
176
     1
 62
   257
176
     1
 40
1.0
176
     1
 90
        1
176
     1
 90
        6
176
     1
 90
        2
176
     1
 62
     7
176
     1
 90
        5
176
     1
 90
        0
176
     1
 90
        0
176
     1
290
     0
176
     1
 90
        1
176
     1
 40
0.0
176
     1
 90
        0
176
     1
290
     1
176
     1
290
     1
176
     1
290
     0
176
     1
290
     0
176
     1
290
     0
176
     1
290
     0
176
     1
290
     0
176
     1
290
     0
176
     1
290
     0
176
     1
 90
       50
176
     1
 40
0.0
176
     1
 40
1.0
176
     1
 90
        0
176
     1
 62
    18
420
        0
176
     1
 90
       50
176
     1
 90
        3
176
     1
 62
     5
420
      255
176
     1
290
     0
176
     1
 90
       50
176
     1
 90
       50
176
     1
 90
       50
176
     1
290
     0
176
     1
 90
       50
176
     1
 62
   256
176
     0
 40
1.0
176
     0
 90
        2
176
     1
  1
strokes_ogs.tif
176
     1
290
     0
176
     1
 40
1.0
176
     1
 40
1.0
176
     1
1001
ACAD
1000
AcDbSavedByObjectVersion
1070
     0
  0
VISUALSTYLE
  5
F4
102
{ACAD_REACTORS
330
EF
102
}
330
EF
100
AcDbVisualStyle
  2
Basic
 70
     7
177
     3
291
     1
 70
    58
 90
        1
176
     1
 90
        0
176
     1
 90
        1
176
     1
 90
        0
176
     1
 40
0.6
176
     1
 40
30.0
176
     1
 62
     7
420
 16777215
176
     1
 90
        0
176
     1
 90
        4
176
     1
 62
     7
176
     1
 62
   257
176
     1
 90
        1
176
     1
 90
        1
176
     1
 40
1.0
176
     1
 90
        8
176
     1
 62
     7
176
     1
 40
1.0
176
     1
 90
        1
176
     1
 90
        6
176
     1
 90
        2
176
     1
 62
     7
176
     1
 90
        5
176
     1
 90
        0
176
     1
 90
        0
176
     1
290
     0
176
     1
 90
        1
176
     1
 40
0.0
176
     1
 90
        0
176
     1
290
     0
176
     1
290
     1
176
     1
290
     1
176
     1
290
     0
176
     1
290
     0
176
     1
290
     0
176
     1
290
     0
176
     1
290
     0
176
     1
290
     0
176
     1
 90
       50
176
     1
 40
0.0
176
     1
 40
1.0
176
     1
 90
        0
176
     1
 62
    18
420
        0
176
     1
 90
       50
176
     1
 90
        3
176
     1
 62
     5
420
      255
176
     1
290
     0
176
     1
 90
       50
176
     1
 90
       50
176
     1
 90
       50
176
     1
290
     0
176
     1
 90
       50
176
     1
 62
   256
176
     0
 40
1.0
176
     0
 90
        2
176
     1
  1
strokes_ogs.tif
176
     1
290
     0
176
     1
 40
1.0
176
     1
 40
1.0
176
     1
1001
ACAD
1000
AcDbSavedByObjectVersion
1070
     0
  0
VISUALSTYLE
  5
FB
102
{ACAD_REACTORS
330
EF
102
}
330
EF
100
AcDbVisualStyle
  2
Brighten
 70
    12
177
     3
291
     1
 70
    58
 90
        2
176
     1
 90
        2
176
     1
 90
        1
176
     1
 90
        0
176
     1
 40
0.6
176
     1
 40
30.0
176
     1
 62
     7
420
 16777215
176
     1
 90
        1
176
     1
 90
        4
176
     1
 62
     7
176
     1
 62
   257
176
     1
 90
        1
176
     1
 90
        1
176
     1
 40
1.0
176
     1
 90
        8
176
     1
 62
     7
176
     1
 40
1.0
176
     1
 90
        1
176
     1
 90
        6
176
     1
 90
        2
176
     1
 62
     7
176
     1
 90
        5
176
     1
 90
        0
176
     1
 90
        0
176
     1
290
     0
176
     1
 90
        1
176
     1
 40
50.0
176
     1
 90
        0
176
     1
290
     0
176
     1
290
     1
176
     1
290
     1
176
     1
290
     0
176
     1
290
     0
176
     1
290
     0
176
     1
290
     0
176
     1
290
     0
176
     1
290
     0
176
     1
 90
       50
176
     1
 40
0.0
176
     1
 40
1.0
176
     1
 90
        0
176
     1
 62
    18
420
        0
176
     1
 90
       50
176
     1
 90
        3
176
     1
 62
     5
420
      255
176
     1
290
     0
176
     1
 90
       50
176
     1
 90
       50
176
     1
 90
       50
176
     1
290
     0
176
     1
 90
       50
176
     1
 62
   256
176
     0
 40
1.0
176
     0
 90
        2
176
     1
  1
strokes_ogs.tif
176
     1
290
     0
176
     1
 40
1.0
176
     1
 40
1.0
176
     1
1001
ACAD
1000
AcDbSavedByObjectVersion
1070
     0
  0
VISUALSTYLE
  5
FF
102
{ACAD_REACTORS
330
EF
102
}
330
EF
100
AcDbVisualStyle
  2
ColorChange
 70
    16
177
     3
291
     1
 70
    58
 90
        2
176
     1
 90
        2
176
     1
 90
        3
176
     1
 90
        0
176
     1
 40
0.6
176
     1
 40
30.0
176
     1
 62
     8
420
  8421504
176
     1
 90
        1
176
     1
 90
        4
176
     1
 62
     7
176
     1
 62
   257
176
     1
 90
        1
176
     1
 90
        1
176
     1
 40
1.0
176
     1
 90
        8
176
     1
 62
     8
420
  8421504
176
     1
 40
1.0
176
     1
 90
        1
176
     1
 90
        6
176
     1
 90
        2
176
     1
 62
     7
176
     1
 90
        5
176
     1
 90
        0
176
     1
 90
        0
176
     1
290
     0
176
     1
 90
        1
176
     1
 40
0.0
176
     1
 90
        0
176
     1
290
     0
176
     1
290
     1
176
     1
290
     1
176
     1
290
     0
176
     1
290
     0
176
     1
290
     0
176
     1
290
     0
176
     1
290
     0
176
     1
290
     0
176
     1
 90
       50
176
     1
 40
0.0
176
     1
 40
1.0
176
     1
 90
        0
176
     1
 62
    18
420
        0
176
     1
 90
       50
176
     1
 90
        3
176
     1
 62
     5
420
      255
176
     1
290
     0
176
     1
 90
       50
176
     1
 90
       50
176
     1
 90
       50
176
     1
290
     0
176
     1
 90
       50
176
     1
 62
   256
176
     0
 40
1.0
176
     0
 90
        2
176
     1
  1
strokes_ogs.tif
176
     1
290
     0
176
     1
 40
1.0
176
     1
 40
1.0
176
     1
1001
ACAD
1000
AcDbSavedByObjectVersion
1070
     0
  0
VISUALSTYLE
  5
F8
102
{ACAD_REACTORS
330
EF
102
}
330
EF
100
AcDbVisualStyle
  2
Conceptual
 70
     9
177
     3
291
     0
 70
    58
 90
        3
176
     1
 90
        2
176
     1
 90
        1
176
     1
 90
        0
176
     1
 40
0.6
176
     1
 40
30.0
176
     1
 62
     7
420
 16777215
176
     1
 90
        2
176
     1
 90
        2
176
     1
 62
     7
176
     1
 62
   257
176
     1
 90
        1
176
     1
 90
        1
176
     1
 40
40.0
176
     1
 90
        8
176
     1
 62
     7
176
     1
 40
1.0
176
     1
 90
        1
176
     1
 90
        6
176
     1
 90
        2
176
     1
 62
     7
176
     1
 90
        3
176
     1
 90
        0
176
     1
 90
        0
176
     1
290
     0
176
     1
 90
        1
176
     1
 40
0.0
176
     1
 90
        0
176
     1
290
     0
176
     1
290
     1
176
     1
290
     1
176
     1
290
     0
176
     1
290
     0
176
     1
290
     0
176
     1
290
     0
176
     1
290
     0
176
     1
290
     0
176
     1
 90
       50
176
     1
 40
0.0
176
     1
 40
1.0
176
     1
 90
        0
176
     1
 62
    18
420
        0
176
     1
 90
       50
176
     1
 90
        3
176
     1
 62
     5
420
      255
176
     1
290
     0
176
     1
 90
       50
176
     1
 90
       50
176
     1
 90
       50
176
     1
290
     0
176
     1
 90
       50
176
     1
 62
   256
176
     0
 40
1.0
176
     0
 90
        2
176
     1
  1
strokes_ogs.tif
176
     1
290
     0
176
     1
 40
1.0
176
     1
 40
1.0
176
     1
1001
ACAD
1000
AcDbSavedByObjectVersion
1070
     0
  0
VISUALSTYLE
  5
FA
102
{ACAD_REACTORS
330
EF
102
}
330
EF
100
AcDbVisualStyle
  2
Dim
 70
    11
177
     3
291
     1
 70
    58
 90
        2
176
     1
 90
        2
176
     1
 90
        1
176
     1
 90
        0
176
     1
 40
0.6
176
     1
 40
30.0
176
     1
 62
     7
420
 16777215
176
     1
 90
        1
176
     1
 90
        4
176
     1
 62
     7
176
     1
 62
   257
176
     1
 90
        1
176
     1
 90
        1
176
     1
 40
1.0
176
     1
 90
        8
176
     1
 62
     7
176
     1
 40
1.0
176
     1
 90
        1
176
     1
 90
        6
176
     1
 90
        2
176
     1
 62
     7
176
     1
 90
        5
176
     1
 90
        0
176
     1
 90
        0
176
     1
290
     0
176
     1
 90
        1
176
     1
 40
-50.0
176
     1
 90
        0
176
     1
290
     0
176
     1
290
     1
176
     1
290
     1
176
     1
290
     0
176
     1
290
     0
176
     1
290
     0
176
     1
290
     0
176
     1
290
     0
176
     1
290
     0
176
     1
 90
       50
176
     1
 40
0.0
176
     1
 40
1.0
176
     1
 90
        0
176
     1
 62
    18
420
        0
176
     1
 90
       50
176
     1
 90
        3
176
     1
 62
     5
420
      255
176
     1
290
     0
176
     1
 90
       50
176
     1
 90
       50
176
     1
 90
       50
176
     1
290
     0
176
     1
 90
       50
176
     1
 62
   256
176
     0
 40
1.0
176
     0
 90
        2
176
     1
  1
strokes_ogs.tif
176
     1
290
     0
176
     1
 40
1.0
176
     1
 40
1.0
176
     1
1001
ACAD
1000
AcDbSavedByObjectVersion
1070
     0
  0
VISUALSTYLE
  5
1E6
102
{ACAD_REACTORS
330
EF
102
}
330
EF
100
AcDbVisualStyle
  2
EdgeColorOff
 70
    22
177
     3
291
     1
 70
    58
 90
        2
176
     0
 90
        2
176
     0
 90
        0
176
     0
 90
        0
176
     0
 40
0.6
176
     0
 40
30.0
176
     0
 62
     7
420
 16777215
176
     0
 90
        1
176
     0
 90
        4
176
     0
 62
     7
176
     0
 62
   257
176
     0
 90
        1
176
     0
 90
        1
176
     0
 40
1.0
176
     0
 90
        8
176
     2
 62
     7
176
     0
 40
1.0
176
     0
 90
        1
176
     0
 90
        6
176
     0
 90
        2
176
     0
 62
     7
176
     0
 90
        5
176
     0
 90
        0
176
     0
 90
        0
176
     0
290
     0
176
     0
 90
        1
176
     0
 40
0.0
176
     0
 90
        0
176
     0
290
     0
176
     1
290
     1
176
     1
290
     1
176
     1
290
     0
176
     1
290
     0
176
     1
290
     0
176
     1
290
     0
176
     1
290
     0
176
     1
290
     0
176
     1
 90
       50
176
     1
 40
0.0
176
     1
 40
1.0
176
     1
 90
        0
176
     1
 62
    18
420
        0
176
     1
 90
       50
176
     1
 90
        3
176
     1
 62
     5
420
      255
176
     1
290
     0
176
     1
 90
       50
176
     1
 90
       50
176
     1
 90
       50
176
     1
290
     0
176
     1
 90
       50
176
     1
 62
   256
176
     0
 40
1.0
176
     0
 90
        2
176
     1
  1
strokes_ogs.tif
176
     1
290
     0
176
     1
 40
1.0
176
     1
 40
1.0
176
     1
1001
ACAD
1000
AcDbSavedByObjectVersion
1070
     0
  0
VISUALSTYLE
  5
FE
102
{ACAD_REACTORS
330
EF
102
}
330
EF
100
AcDbVisualStyle
  2
Facepattern
 70
    15
177
     3
291
     1
 70
    58
 90
        2
176
     1
 90
        2
176
     1
 90
        1
176
     1
 90
        0
176
     1
 40
0.6
176
     1
 40
30.0
176
     1
 62
     7
420
 16777215
176
     1
 90
        1
176
     1
 90
        4
176
     1
 62
     7
176
     1
 62
   257
176
     1
 90
        1
176
     1
 90
        1
176
     1
 40
1.0
176
     1
 90
        8
176
     1
 62
     7
176
     1
 40
1.0
176
     1
 90
        1
176
     1
 90
        6
176
     1
 90
        2
176
     1
 62
     7
176
     1
 90
        5
176
     1
 90
        0
176
     1
 90
        0
176
     1
290
     0
176
     1
 90
        1
176
     1
 40
0.0
176
     1
 90
        0
176
     1
290
     0
176
     1
290
     1
176
     1
290
     1
176
     1
290
     0
176
     1
290
     0
176
     1
290
     0
176
     1
290
     0
176
     1
290
     0
176
     1
290
     0
176
     1
 90
       50
176
     1
 40
0.0
176
     1
 40
1.0
176
     1
 90
        0
176
     1
 62
    18
420
        0
176
     1
 90
       50
176
     1
 90
        3
176
     1
 62
     5
420
      255
176
     1
290
     0
176
     1
 90
       50
176
     1
 90
       50
176
     1
 90
       50
176
     1
290
     0
176
     1
 90
       50
176
     1
 62
   256
176
     0
 40
1.0
176
     0
 90
        2
176
     1
  1
strokes_ogs.tif
176
     1
290
     0
176
     1
 40
1.0
176
     1
 40
1.0
176
     1
1001
ACAD
1000
AcDbSavedByObjectVersion
1070
     0
  0
VISUALSTYLE
  5
F0
102
{ACAD_REACTORS
330
EF
102
}
330
EF
100
AcDbVisualStyle
  2
Flat
 70
     0
177
     3
291
     1
 70
    58
 90
        2
176
     1
 90
        1
176
     1
 90
        1
176
     1
 90
        2
176
     1
 40
0.6
176
     1
 40
30.0
176
     1
 62
     7
420
 16777215
176
     1
 90
        0
176
     1
 90
        0
176
     1
 62
     7
176
     1
 62
   257
176
     1
 90
        1
176
     1
 90
        1
176
     1
 40
1.0
176
     1
 90
        8
176
     1
 62
     7
176
     1
 40
1.0
176
     1
 90
        1
176
     1
 90
        6
176
     1
 90
        2
176
     1
 62
     7
176
     1
 90
        5
176
     1
 90
        0
176
     1
 90
        0
176
     1
290
     0
176
     1
 90
       13
176
     1
 40
0.0
176
     1
 90
        0
176
     1
290
     0
176
     1
290
     1
176
     1
290
     1
176
     1
290
     0
176
     1
290
     0
176
     1
290
     0
176
     1
290
     0
176
     1
290
     0
176
     1
290
     0
176
     1
 90
       50
176
     1
 40
0.0
176
     1
 40
1.0
176
     1
 90
        0
176
     1
 62
    18
420
        0
176
     1
 90
       50
176
     1
 90
        3
176
     1
 62
     5
420
      255
176
     1
290
     0
176
     1
 90
       50
176
     1
 90
       50
176
     1
 90
       50
176
     1
290
     0
176
     1
 90
       50
176
     1
 62
   256
176
     0
 40
1.0
176
     0
 90
        2
176
     1
  1
strokes_ogs.tif
176
     1
290
     0
176
     1
 40
1.0
176
     1
 40
1.0
176
     1
1001
ACAD
1000
AcDbSavedByObjectVersion
1070
     0
  0
VISUALSTYLE
  5
F1
102
{ACAD_REACTORS
330
EF
102
}
330
EF
100
AcDbVisualStyle
  2
FlatWithEdges
 70
     1
177
     3
291
     1
 70
    58
 90
        2
176
     1
 90
        1
176
     1
 90
        1
176
     1
 90
        2
176
     1
 40
0.6
176
     1
 40
30.0
176
     1
 62
     7
420
 16777215
176
     1
 90
        1
176
     1
 90
        0
176
     1
 62
     7
176
     1
 62
   257
176
     1
 90
        1
176
     1
 90
        1
176
     1
 40
1.0
176
     1
 90
        0
176
     1
 62
   257
176
     1
 40
1.0
176
     1
 90
        1
176
     1
 90
        6
176
     1
 90
        2
176
     1
 62
     7
176
     1
 90
        5
176
     1
 90
        0
176
     1
 90
        0
176
     1
290
     0
176
     1
 90
       13
176
     1
 40
0.0
176
     1
 90
        0
176
     1
290
     0
176
     1
290
     1
176
     1
290
     1
176
     1
290
     0
176
     1
290
     0
176
     1
290
     0
176
     1
290
     0
176
     1
290
     0
176
     1
290
     0
176
     1
 90
       50
176
     1
 40
0.0
176
     1
 40
1.0
176
     1
 90
        0
176
     1
 62
    18
420
        0
176
     1
 90
       50
176
     1
 90
        3
176
     1
 62
     5
420
      255
176
     1
290
     0
176
     1
 90
       50
176
     1
 90
       50
176
     1
 90
       50
176
     1
290
     0
176
     1
 90
       50
176
     1
 62
   256
176
     0
 40
1.0
176
     0
 90
        2
176
     1
  1
strokes_ogs.tif
176
     1
290
     0
176
     1
 40
1.0
176
     1
 40
1.0
176
     1
1001
ACAD
1000
AcDbSavedByObjectVersion
1070
     0
  0
VISUALSTYLE
  5
F2
102
{ACAD_REACTORS
330
EF
102
}
330
EF
100
AcDbVisualStyle
  2
Gouraud
 70
     2
177
     3
291
     1
 70
    58
 90
        2
176
     1
 90
        2
176
     1
 90
        1
176
     1
 90
        2
176
     1
 40
0.6
176
     1
 40
30.0
176
     1
 62
     7
420
 16777215
176
     1
 90
        0
176
     1
 90
        0
176
     1
 62
     7
176
     1
 62
   257
176
     1
 90
        1
176
     1
 90
        1
176
     1
 40
1.0
176
     1
 90
        0
176
     1
 62
     7
176
     1
 40
1.0
176
     1
 90
        1
176
     1
 90
        6
176
     1
 90
        2
176
     1
 62
     7
176
     1
 90
        5
176
     1
 90
        0
176
     1
 90
        0
176
     1
290
     0
176
     1
 90
       13
176
     1
 40
0.0
176
     1
 90
        0
176
     1
290
     0
176
     1
290
     1
176
     1
290
     1
176
     1
290
     0
176
     1
290
     0
176
     1
290
     0
176
     1
290
     0
176
     1
290
     0
176
     1
290
     0
176
     1
 90
       50
176
     1
 40
0.0
176
     1
 40
1.0
176
     1
 90
        0
176
     1
 62
    18
420
        0
176
     1
 90
       50
176
     1
 90
        3
176
     1
 62
     5
420
      255
176
     1
290
     0
176
     1
 90
       50
176
     1
 90
       50
176
     1
 90
       50
176
     1
290
     0
176
     1
 90
       50
176
     1
 62
   256
176
     0
 40
1.0
176
     0
 90
        2
176
     1
  1
strokes_ogs.tif
176
     1
290
     0
176
     1
 40
1.0
176
     1
 40
1.0
176
     1
1001
ACAD
1000
AcDbSavedByObjectVersion
1070
     0
  0
VISUALSTYLE
  5
F3
102
{ACAD_REACTORS
330
EF
102
}
330
EF
100
AcDbVisualStyle
  2
GouraudWithEdges
 70
     3
177
     3
291
     1
 70
    58
 90
        2
176
     1
 90
        2
176
     1
 90
        1
176
     1
 90
        2
176
     1
 40
0.6
176
     1
 40
30.0
176
     1
 62
     7
420
 16777215
176
     1
 90
        1
176
     1
 90
        0
176
     1
 62
     7
176
     1
 62
   257
176
     1
 90
        1
176
     1
 90
        1
176
     1
 40
1.0
176
     1
 90
        0
176
     1
 62
   257
176
     1
 40
1.0
176
     1
 90
        1
176
     1
 90
        6
176
     1
 90
        2
176
     1
 62
     7
176
     1
 90
        5
176
     1
 90
        0
176
     1
 90
        0
176
     1
290
     0
176
     1
 90
       13
176
     1
 40
0.0
176
     1
 90
        0
176
     1
290
     0
176
     1
290
     1
176
     1
290
     1
176
     1
290
     0
176
     1
290
     0
176
     1
290
     0
176
     1
290
     0
176
     1
290
     0
176
     1
290
     0
176
     1
 90
       50
176
     1
 40
0.0
176
     1
 40
1.0
176
     1
 90
        0
176
     1
 62
    18
420
        0
176
     1
 90
       50
176
     1
 90
        3
176
     1
 62
     5
420
      255
176
     1
290
     0
176
     1
 90
       50
176
     1
 90
       50
176
     1
 90
       50
176
     1
290
     0
176
     1
 90
       50
176
     1
 62
   256
176
     0
 40
1.0
176
     0
 90
        2
176
     1
  1
strokes_ogs.tif
176
     1
290
     0
176
     1
 40
1.0
176
     1
 40
1.0
176
     1
1001
ACAD
1000
AcDbSavedByObjectVersion
1070
     0
  0
VISUALSTYLE
  5
F7
102
{ACAD_REACTORS
330
EF
102
}
330
EF
100
AcDbVisualStyle
  2
Hidden
 70
     6
177
     3
291
     0
 70
    58
 90
        1
176
     1
 90
        2
176
     1
 90
        2
176
     1
 90
        0
176
     1
 40
0.6
176
     1
 40
30.0
176
     1
 62
     7
420
 16777215
176
     1
 90
        2
176
     1
 90
        2
176
     1
 62
     7
176
     1
 62
   257
176
     1
 90
        2
176
     1
 90
        1
176
     1
 40
40.0
176
     1
 90
        0
176
     1
 62
   257
176
     1
 40
1.0
176
     1
 90
        1
176
     1
 90
        6
176
     1
 90
        2
176
     1
 62
     7
176
     1
 90
        3
176
     1
 90
        0
176
     1
 90
        0
176
     1
290
     0
176
     1
 90
        1
176
     1
 40
0.0
176
     1
 90
        0
176
     1
290
     0
176
     1
290
     1
176
     1
290
     1
176
     1
290
     0
176
     1
290
     0
176
     1
290
     0
176
     1
290
     0
176
     1
290
     0
176
     1
290
     0
176
     1
 90
       50
176
     1
 40
0.0
176
     1
 40
1.0
176
     1
 90
        0
176
     1
 62
    18
420
        0
176
     1
 90
       50
176
     1
 90
        3
176
     1
 62
     5
420
      255
176
     1
290
     0
176
     1
 90
       50
176
     1
 90
       50
176
     1
 90
       50
176
     1
290
     0
176
     1
 90
       50
176
     1
 62
   256
176
     0
 40
1.0
176
     0
 90
        2
176
     1
  1
strokes_ogs.tif
176
     1
290
     0
176
     1
 40
1.0
176
     1
 40
1.0
176
     1
1001
ACAD
1000
AcDbSavedByObjectVersion
1070
     0
  0
VISUALSTYLE
  5
1E4
102
{ACAD_REACTORS
330
EF
102
}
330
EF
100
AcDbVisualStyle
  2
JitterOff
 70
    20
177
     3
291
     1
 70
    58
 90
        2
176
     0
 90
        2
176
     0
 90
        0
176
     0
 90
        0
176
     0
 40
0.6
176
     0
 40
30.0
176
     0
 62
     7
420
 16777215
176
     0
 90
        1
176
     0
 90
        4
176
     0
 62
     7
176
     0
 62
   257
176
     0
 90
        1
176
     0
 90
        1
176
     0
 40
1.0
176
     0
 90
       10
176
     2
 62
     7
176
     0
 40
1.0
176
     0
 90
        1
176
     0
 90
        6
176
     0
 90
        2
176
     0
 62
     7
176
     0
 90
        5
176
     0
 90
        0
176
     0
 90
        0
176
     0
290
     0
176
     0
 90
        1
176
     0
 40
0.0
176
     0
 90
        0
176
     0
290
     0
176
     1
290
     1
176
     1
290
     1
176
     1
290
     0
176
     1
290
     0
176
     1
290
     0
176
     1
290
     0
176
     1
290
     0
176
     1
290
     0
176
     1
 90
       50
176
     1
 40
0.0
176
     1
 40
1.0
176
     1
 90
        0
176
     1
 62
    18
420
        0
176
     1
 90
       50
176
     1
 90
        3
176
     1
 62
     5
420
      255
176
     1
290
     0
176
     1
 90
       50
176
     1
 90
       50
176
     1
 90
       50
176
     1
290
     0
176
     1
 90
       50
176
     1
 62
   256
176
     0
 40
1.0
176
     0
 90
        2
176
     1
  1
strokes_ogs.tif
176
     1
290
     0
176
     1
 40
1.0
176
     1
 40
1.0
176
     1
1001
ACAD
1000
AcDbSavedByObjectVersion
1070
     0
  0
VISUALSTYLE
  5
FD
102
{ACAD_REACTORS
330
EF
102
}
330
EF
100
AcDbVisualStyle
  2
Linepattern
 70
    14
177
     3
291
     1
 70
    58
 90
        2
176
     1
 90
        2
176
     1
 90
        1
176
     1
 90
        0
176
     1
 40
0.6
176
     1
 40
30.0
176
     1
 62
     7
420
 16777215
176
     1
 90
        1
176
     1
 90
        4
176
     1
 62
     7
176
     1
 62
   257
176
     1
 90
        7
176
     1
 90
        7
176
     1
 40
1.0
176
     1
 90
        8
176
     1
 62
     7
176
     1
 40
1.0
176
     1
 90
        1
176
     1
 90
        6
176
     1
 90
        2
176
     1
 62
     7
176
     1
 90
        5
176
     1
 90
        0
176
     1
 90
        0
176
     1
290
     0
176
     1
 90
        1
176
     1
 40
0.0
176
     1
 90
        0
176
     1
290
     0
176
     1
290
     1
176
     1
290
     1
176
     1
290
     0
176
     1
290
     0
176
     1
290
     0
176
     1
290
     0
176
     1
290
     0
176
     1
290
     0
176
     1
 90
       50
176
     1
 40
0.0
176
     1
 40
1.0
176
     1
 90
        0
176
     1
 62
    18
420
        0
176
     1
 90
       50
176
     1
 90
        3
176
     1
 62
     5
420
      255
176
     1
290
     0
176
     1
 90
       50
176
     1
 90
       50
176
     1
 90
       50
176
     1
290
     0
176
     1
 90
       50
176
     1
 62
   256
176
     0
 40
1.0
176
     0
 90
        2
176
     1
  1
strokes_ogs.tif
176
     1
290
     0
176
     1
 40
1.0
176
     1
 40
1.0
176
     1
1001
ACAD
1000
AcDbSavedByObjectVersion
1070
     0
  0
VISUALSTYLE
  5
1E5
102
{ACAD_REACTORS
330
EF
102
}
330
EF
100
AcDbVisualStyle
  2
OverhangOff
 70
    21
177
     3
291
     1
 70
    58
 90
        2
176
     0
 90
        2
176
     0
 90
        0
176
     0
 90
        0
176
     0
 40
0.6
176
     0
 40
30.0
176
     0
 62
     7
420
 16777215
176
     0
 90
        1
176
     0
 90
        4
176
     0
 62
     7
176
     0
 62
   257
176
     0
 90
        1
176
     0
 90
        1
176
     0
 40
1.0
176
     0
 90
        9
176
     2
 62
     7
176
     0
 40
1.0
176
     0
 90
        1
176
     0
 90
        6
176
     0
 90
        2
176
     0
 62
     7
176
     0
 90
        5
176
     0
 90
        0
176
     0
 90
        0
176
     0
290
     0
176
     0
 90
        1
176
     0
 40
0.0
176
     0
 90
        0
176
     0
290
     0
176
     1
290
     1
176
     1
290
     1
176
     1
290
     0
176
     1
290
     0
176
     1
290
     0
176
     1
290
     0
176
     1
290
     0
176
     1
290
     0
176
     1
 90
       50
176
     1
 40
0.0
176
     1
 40
1.0
176
     1
 90
        0
176
     1
 62
    18
420
        0
176
     1
 90
       50
176
     1
 90
        3
176
     1
 62
     5
420
      255
176
     1
290
     0
176
     1
 90
       50
176
     1
 90
       50
176
     1
 90
       50
176
     1
290
     0
176
     1
 90
       50
176
     1
 62
   256
176
     0
 40
1.0
176
     0
 90
        2
176
     1
  1
strokes_ogs.tif
176
     1
290
     0
176
     1
 40
1.0
176
     1
 40
1.0
176
     1
1001
ACAD
1000
AcDbSavedByObjectVersion
1070
     0
  0
VISUALSTYLE
  5
F9
102
{ACAD_REACTORS
330
EF
102
}
330
EF
100
AcDbVisualStyle
  2
Realistic
 70
     8
177
     3
291
     0
 70
    58
 90
        2
176
     1
 90
        2
176
     1
 90
        0
176
     1
 90
        2
176
     1
 40
0.6
176
     1
 40
30.0
176
     1
 62
     7
420
 16777215
176
     1
 90
        0
176
     1
 90
        0
176
     1
 62
     7
176
     1
 62
   257
176
     1
 90
        1
176
     1
 90
        1
176
     1
 40
1.0
176
     1
 90
        8
176
     1
 62
   257
176
     1
 40
1.0
176
     1
 90
        1
176
     1
 90
        6
176
     1
 90
        2
176
     1
 62
     7
176
     1
 90
        3
176
     1
 90
        0
176
     1
 90
        0
176
     1
290
     0
176
     1
 90
       13
176
     1
 40
0.0
176
     1
 90
        0
176
     1
290
     0
176
     1
290
     1
176
     1
290
     1
176
     1
290
     0
176
     1
290
     0
176
     1
290
     0
176
     1
290
     0
176
     1
290
     0
176
     1
290
     0
176
     1
 90
       50
176
     1
 40
0.0
176
     1
 40
1.0
176
     1
 90
        0
176
     1
 62
    18
420
        0
176
     1
 90
       50
176
     1
 90
        3
176
     1
 62
     5
420
      255
176
     1
290
     0
176
     1
 90
       50
176
     1
 90
       50
176
     1
 90
       50
176
     1
290
     0
176
     1
 90
       50
176
     1
 62
   256
176
     0
 40
1.0
176
     0
 90
        2
176
     1
  1
strokes_ogs.tif
176
     1
290
     0
176
     1
 40
1.0
176
     1
 40
1.0
176
     1
1001
ACAD
1000
AcDbSavedByObjectVersion
1070
     0
  0
VISUALSTYLE
  5
1F3
102
{ACAD_REACTORS
330
EF
102
}
330
EF
100
AcDbVisualStyle
  2
Shaded
 70
    27
177
     3
291
     0
 70
    58
 90
        2
176
     1
 90
        2
176
     1
 90
        1
176
     1
 90
        2
176
     1
 40
0.6
176
     1
 40
30.0
176
     1
 62
     7
420
 16777215
176
     1
 90
        0
176
     1
 90
        4
176
     1
 62
     7
176
     1
 62
   257
176
     1
 90
        1
176
     1
 90
        1
176
     1
 40
1.0
176
     1
 90
        8
176
     1
 62
   257
176
     1
 40
1.0
176
     1
 90
        1
176
     1
 90
        6
176
     1
 90
        2
176
     1
 62
     8
420
  7895160
176
     1
 90
        3
176
     1
 90
        0
176
     1
 90
        0
176
     1
290
     0
176
     1
 90
        5
176
     1
 40
0.0
176
     1
 90
        0
176
     1
290
     0
176
     1
290
     1
176
     1
290
     1
176
     1
290
     0
176
     1
290
     0
176
     1
290
     0
176
     1
290
     0
176
     1
290
     0
176
     1
290
     0
176
     1
 90
       50
176
     1
 40
0.0
176
     1
 40
1.0
176
     1
 90
        0
176
     1
 62
    18
420
        0
176
     1
 90
       50
176
     1
 90
        3
176
     1
 62
     5
420
      255
176
     1
290
     0
176
     1
 90
       50
176
     1
 90
       50
176
     1
 90
       50
176
     1
290
     0
176
     1
 90
       50
176
     1
 62
   256
176
     0
 40
1.0
176
     0
 90
        2
176
     1
  1
strokes_ogs.tif
176
     1
290
     0
176
     1
 40
1.0
176
     1
 40
1.0
176
     1
1001
ACAD
1000
AcDbSavedByObjectVersion
1070
     0
  0
VISUALSTYLE
  5
1F2
102
{ACAD_REACTORS
330
EF
102
}
330
EF
100
AcDbVisualStyle
  2
Shaded with edges
 70
    26
177
     3
291
     0
 70
    58
 90
        2
176
     1
 90
        2
176
     1
 90
        1
176
     1
 90
        2
176
     1
 40
0.6
176
     1
 40
30.0
176
     1
 62
     7
420
 16777215
176
     1
 90
        1
176
     1
 90
        2
176
     1
 62
     7
176
     1
 62
   257
176
     1
 90
        2
176
     1
 90
        1
176
     1
 40
1.0
176
     1
 90
        8
176
     1
 62
   257
176
     1
 40
1.0
176
     1
 90
        1
176
     1
 90
        6
176
     1
 90
        2
176
     1
 62
     7
176
     1
 90
        3
176
     1
 90
        0
176
     1
 90
        0
176
     1
290
     0
176
     1
 90
        5
176
     1
 40
0.0
176
     1
 90
        0
176
     1
290
     0
176
     1
290
     1
176
     1
290
     1
176
     1
290
     0
176
     1
290
     0
176
     1
290
     0
176
     1
290
     0
176
     1
290
     0
176
     1
290
     0
176
     1
 90
       50
176
     1
 40
0.0
176
     1
 40
1.0
176
     1
 90
        0
176
     1
 62
    18
420
        0
176
     1
 90
       50
176
     1
 90
        3
176
     1
 62
     5
420
      255
176
     1
290
     0
176
     1
 90
       50
176
     1
 90
       50
176
     1
 90
       50
176
     1
290
     0
176
     1
 90
       50
176
     1
 62
   256
176
     0
 40
1.0
176
     0
 90
        2
176
     1
  1
strokes_ogs.tif
176
     1
290
     0
176
     1
 40
1.0
176
     1
 40
1.0
176
     1
1001
ACAD
1000
AcDbSavedByObjectVersion
1070
     0
  0
VISUALSTYLE
  5
1EF
102
{ACAD_REACTORS
330
EF
102
}
330
EF
100
AcDbVisualStyle
  2
Shades of Gray
 70
    23
177
     3
291
     0
 70
    58
 90
        2
176
     1
 90
        2
176
     1
 90
        3
176
     1
 90
        0
176
     1
 40
0.6
176
     1
 40
30.0
176
     1
 62
     7
420
 16777215
176
     1
 90
        2
176
     1
 90
        2
176
     1
 62
     7
176
     1
 62
     7
176
     1
 90
        1
176
     1
 90
        1
176
     1
 40
40.0
176
     1
 90
        8
176
     1
 62
     7
176
     1
 40
1.0
176
     1
 90
        1
176
     1
 90
        6
176
     1
 90
        2
176
     1
 62
     7
176
     1
 90
        3
176
     1
 90
        0
176
     1
 90
        0
176
     1
290
     0
176
     1
 90
        1
176
     1
 40
0.0
176
     1
 90
        0
176
     1
290
     0
176
     1
290
     1
176
     1
290
     1
176
     1
290
     0
176
     1
290
     0
176
     1
290
     0
176
     1
290
     0
176
     1
290
     0
176
     1
290
     0
176
     1
 90
       50
176
     1
 40
0.0
176
     1
 40
1.0
176
     1
 90
        0
176
     1
 62
    18
420
        0
176
     1
 90
       50
176
     1
 90
        3
176
     1
 62
     5
420
      255
176
     1
290
     0
176
     1
 90
       50
176
     1
 90
       50
176
     1
 90
       50
176
     1
290
     0
176
     1
 90
       50
176
     1
 62
   256
176
     0
 40
1.0
176
     0
 90
        2
176
     1
  1
strokes_ogs.tif
176
     1
290
     0
176
     1
 40
1.0
176
     1
 40
1.0
176
     1
1001
ACAD
1000
AcDbSavedByObjectVersion
1070
     0
  0
VISUALSTYLE
  5
1F0
102
{ACAD_REACTORS
330
EF
102
}
330
EF
100
AcDbVisualStyle
  2
Sketchy
 70
    24
177
     3
291
     0
 70
    58
 90
        1
176
     1
 90
        2
176
     1
 90
        2
176
     1
 90
        0
176
     1
 40
0.6
176
     1
 40
30.0
176
     1
 62
     7
420
 16777215
176
     1
 90
        2
176
     1
 90
        2
176
     1
 62
     7
176
     1
 62
     7
176
     1
 90
        1
176
     1
 90
        1
176
     1
 40
40.0
176
     1
 90
       11
176
     1
 62
     7
176
     1
 40
1.0
176
     1
 90
        1
176
     1
 90
        6
176
     1
 90
        2
176
     1
 62
     7
176
     1
 90
        6
176
     1
 90
        0
176
     1
 90
        0
176
     1
290
     0
176
     1
 90
        1
176
     1
 40
0.0
176
     1
 90
        0
176
     1
290
     0
176
     1
290
     1
176
     1
290
     1
176
     1
290
     0
176
     1
290
     0
176
     1
290
     0
176
     1
290
     0
176
     1
290
     0
176
     1
290
     0
176
     1
 90
       50
176
     1
 40
0.0
176
     1
 40
1.0
176
     1
 90
        0
176
     1
 62
    18
420
        0
176
     1
 90
       50
176
     1
 90
        3
176
     1
 62
     5
420
      255
176
     1
290
     0
176
     1
 90
       50
176
     1
 90
       50
176
     1
 90
       50
176
     1
290
     0
176
     1
 90
       50
176
     1
 62
   256
176
     0
 40
1.0
176
     0
 90
        2
176
     1
  1
strokes_ogs.tif
176
     1
290
     0
176
     1
 40
1.0
176
     1
 40
1.0
176
     1
1001
ACAD
1000
AcDbSavedByObjectVersion
1070
     0
  0
VISUALSTYLE
  5
FC
102
{ACAD_REACTORS
330
EF
102
}
330
EF
100
AcDbVisualStyle
  2
Thicken
 70
    13
177
     3
291
     1
 70
    58
 90
        2
176
     1
 90
        2
176
     1
 90
        1
176
     1
 90
        0
176
     1
 40
0.6
176
     1
 40
30.0
176
     1
 62
     7
420
 16777215
176
     1
 90
        1
176
     1
 90
        4
176
     1
 62
     7
176
     1
 62
   257
176
     1
 90
        1
176
     1
 90
        1
176
     1
 40
1.0
176
     1
 90
       12
176
     1
 62
     7
176
     1
 40
1.0
176
     1
 90
        1
176
     1
 90
        6
176
     1
 90
        2
176
     1
 62
     7
176
     1
 90
        5
176
     1
 90
        0
176
     1
 90
        0
176
     1
290
     0
176
     1
 90
        1
176
     1
 40
0.0
176
     1
 90
        0
176
     1
290
     0
176
     1
290
     1
176
     1
290
     1
176
     1
290
     0
176
     1
290
     0
176
     1
290
     0
176
     1
290
     0
176
     1
290
     0
176
     1
290
     0
176
     1
 90
       50
176
     1
 40
0.0
176
     1
 40
1.0
176
     1
 90
        0
176
     1
 62
    18
420
        0
176
     1
 90
       50
176
     1
 90
        3
176
     1
 62
     5
420
      255
176
     1
290
     0
176
     1
 90
       50
176
     1
 90
       50
176
     1
 90
       50
176
     1
290
     0
176
     1
 90
       50
176
     1
 62
   256
176
     0
 40
1.0
176
     0
 90
        2
176
     1
  1
strokes_ogs.tif
176
     1
290
     0
176
     1
 40
1.0
176
     1
 40
1.0
176
     1
1001
ACAD
1000
AcDbSavedByObjectVersion
1070
     0
  0
VISUALSTYLE
  5
F6
102
{ACAD_REACTORS
330
EF
102
}
330
EF
100
AcDbVisualStyle
  2
Wireframe
 70
     5
177
     3
291
     0
 70
    58
 90
        0
176
     1
 90
        2
176
     1
 90
        0
176
     1
 90
        0
176
     1
 40
0.6
176
     1
 40
30.0
176
     1
 62
     7
420
 16777215
176
     1
 90
        1
176
     1
 90
        4
176
     1
 62
     7
176
     1
 62
   257
176
     1
 90
        1
176
     1
 90
        1
176
     1
 40
1.0
176
     1
 90
        0
176
     1
 62
   257
176
     1
 40
1.0
176
     1
 90
        1
176
     1
 90
        6
176
     1
 90
        2
176
     1
 62
     7
176
     1
 90
        3
176
     1
 90
        0
176
     1
 90
        0
176
     1
290
     0
176
     1
 90
        1
176
     1
 40
0.0
176
     1
 90
        0
176
     1
290
     0
176
     1
290
     1
176
     1
290
     1
176
     1
290
     0
176
     1
290
     0
176
     1
290
     0
176
     1
290
     0
176
     1
290
     0
176
     1
290
     0
176
     1
 90
       50
176
     1
 40
0.0
176
     1
 40
1.0
176
     1
 90
        0
176
     1
 62
    18
420
        0
176
     1
 90
       50
176
     1
 90
        3
176
     1
 62
     5
420
      255
176
     1
290
     0
176
     1
 90
       50
176
     1
 90
       50
176
     1
 90
       50
176
     1
290
     0
176
     1
 90
       50
176
     1
 62
   256
176
     0
 40
1.0
176
     0
 90
        2
176
     1
  1
strokes_ogs.tif
176
     1
290
     0
176
     1
 40
1.0
176
     1
 40
1.0
176
     1
1001
ACAD
1000
AcDbSavedByObjectVersion
1070
     0
  0
VISUALSTYLE
  5
1F1
102
{ACAD_REACTORS
330
EF
102
}
330
EF
100
AcDbVisualStyle
  2
X-Ray
 70
    25
177
     3
291
     0
 70
    58
 90
        2
176
     1
 90
        2
176
     1
 90
        1
176
     1
 90
        1
176
     1
 40
0.5
176
     1
 40
30.0
176
     1
 62
     7
420
 16777215
176
     1
 90
        1
176
     1
 90
        0
176
     1
 62
     7
176
     1
 62
   257
176
     1
 90
        1
176
     1
 90
        1
176
     1
 40
1.0
176
     1
 90
        8
176
     1
 62
     7
176
     1
 40
1.0
176
     1
 90
        1
176
     1
 90
        6
176
     1
 90
        2
176
     1
 62
     7
176
     1
 90
        3
176
     1
 90
        0
176
     1
 90
        0
176
     1
290
     0
176
     1
 90
       13
176
     1
 40
0.0
176
     1
 90
        0
176
     1
290
     0
176
     1
290
     1
176
     1
290
     1
176
     1
290
     0
176
     1
290
     0
176
     1
290
     0
176
     1
290
     0
176
     1
290
     0
176
     1
290
     0
176
     1
 90
       50
176
     1
 40
0.0
176
     1
 40
1.0
176
     1
 90
        0
176
     1
 62
    18
420
        0
176
     1
 90
       50
176
     1
 90
        3
176
     1
 62
     5
420
      255
176
     1
290
     0
176
     1
 90
       50
176
     1
 90
       50
176
     1
 90
       50
176
     1
290
     0
176
     1
 90
       50
176
     1
 62
   256
176
     0
 40
1.0
176
     0
 90
        2
176
     1
  1
strokes_ogs.tif
176
     1
290
     0
176
     1
 40
1.0
176
     1
 40
1.0
176
     1
1001
ACAD
1000
AcDbSavedByObjectVersion
1070
     0
  0
DICTIONARYVAR
  5
146
102
{ACAD_REACTORS
330
5E
102
}
330
5E
100
DictionaryVariables
280
     0
  1
1:1
  0
DICTIONARYVAR
  5
145
102
{ACAD_REACTORS
330
5E
102
}
330
5E
100
DictionaryVariables
280
     0
  1
STANDARD
  0
DICTIONARYVAR
  5
84
102
{ACAD_REACTORS
330
5E
102
}
330
5E
100
DictionaryVariables
280
     0
  1
STANDARD
  0
DICTIONARYVAR
  5
227
102
{ACAD_REACTORS
330
5E
102
}
330
5E
100
DictionaryVariables
280
     0
  1
Metric50
  0
DICTIONARYVAR
  5
228
102
{ACAD_REACTORS
330
5E
102
}
330
5E
100
DictionaryVariables
280
     0
  1
Metric50
  0
DICTIONARYVAR
  5
5F
102
{ACAD_REACTORS
330
5E
102
}
330
5E
100
DictionaryVariables
280
     0
  1
2
  0
DICTIONARYVAR
  5
63
102
{ACAD_REACTORS
330
5E
102
}
330
5E
100
DictionaryVariables
280
     0
  1
1
  0
DICTIONARYVAR
  5
1AE
102
{ACAD_REACTORS
330
5E
102
}
330
5E
100
DictionaryVariables
280
     0
  1
0
  0
DICTIONARYVAR
  5
1AF
102
{ACAD_REACTORS
330
5E
102
}
330
5E
100
DictionaryVariables
280
     0
  1
0
  0
DICTIONARYVAR
  5
625
102
{ACAD_REACTORS
330
5E
102
}
330
5E
100
DictionaryVariables
280
     0
  1
2
  0
DICTIONARYVAR
  5
624
102
{ACAD_REACTORS
330
5E
102
}
330
5E
100
DictionaryVariables
280
     0
  1
1
  0
DICTIONARY
  5
10C3
102
{ACAD_REACTORS
330
10C1
102
}
330
10C1
100
AcDbDictionary
281
     1
  0
DICTIONARY
  5
10C2
102
{ACAD_REACTORS
330
10C1
102
}
330
10C1
100
AcDbDictionary
281
     1
  3
1372969121984
350
10BC
  3
1372969122000
350
10BD
  3
1372969122016
350
10BE
  3
1372969122032
350
10BF
  3
1372969122048
350
10C0
  0
DICTIONARY
  5
10C6
330
21C
100
AcDbDictionary
280
     1
281
     1
  3
ACAD_XREC_ROUNDTRIP
360
10C7
  0
DICTIONARY
  5
205
330
22
100
AcDbDictionary
280
     1
281
     1
  0
DICTIONARY
  5
5EB
330
D3
100
AcDbDictionary
280
     1
281
     1
  0
DICTIONARY
  5
1F9
330
ED
100
AcDbDictionary
280
     1
281
     1
  3
FBXASSET
360
1FA
  0
DICTIONARY
  5
1F7
330
EC
100
AcDbDictionary
280
     1
281
     1
  3
FBXASSET
360
1F8
  0
DICTIONARY
  5
173
330
EE
100
AcDbDictionary
280
     1
281
     1
  3
BUMPTILE
360
175
  3
DIFFUSETILE
360
174
  3
FBXASSET
360
1FB
  3
OPACITYTILE
360
176
  3
REFLECTIONTILE
360
177
  0
XRECORD
  5
FC6
102
{ACAD_REACTORS
330
FC4
102
}
330
FC4
100
AcDbXrecord
280
     1
102
ACAD_MENTALRAY_SETTING_RT
330
FAD
 70
     1
  0
XRECORD
  5
FC5
102
{ACAD_REACTORS
330
FC4
102
}
330
FC4
100
AcDbXrecord
280
     1
 70
     2
 71
     3
 72
     0
  0
DICTIONARY
  5
10C4
330
21A
100
AcDbDictionary
280
     1
281
     1
  3
ACAD_XREC_ROUNDTRIP
360
10C5
  0
DICTIONARY
  5
162
330
7F
100
AcDbDictionary
280
     1
281
     1
  3
ACAD_ROUNDTRIP_2008_TABLESTYLE_CELLSTYLEMAP
360
10BA
  0
XRECORD
  5
10BC
102
{ACAD_REACTORS
330
10C2
102
}
330
10C2
100
AcDbXrecord
280
     1
  1
AcDb_Thumbnail_Schema
102
{ATTRRECORD
341
10BD
  2
AcDbDs::TreatedAsObjectData
280
     1
291
     1
102
ATTRRECORD}
102
{ATTRRECORD
341
10BE
  2
AcDbDs::Legacy
280
     1
291
     1
102
ATTRRECORD}
  2
AcDbDs::ID
280
    10
 91
        8
102
{ATTRRECORD
341
10BF
  2
AcDs:Indexable
280
     1
291
     1
102
ATTRRECORD}
102
{ATTRRECORD
341
10C0
  2
AcDbDs::HandleAttribute
280
     7
282
     1
102
ATTRRECORD}
  2
Thumbnail_Data
280
    15
 91
        0
  0
XRECORD
  5
10BD
102
{ACAD_REACTORS
330
10C2
102
}
330
10C2
100
AcDbXrecord
280
     1
  1
AcDbDs::TreatedAsObjectDataSchema
  2
AcDbDs::TreatedAsObjectData
280
     1
 91
        0
  0
XRECORD
  5
10BE
102
{ACAD_REACTORS
330
10C2
102
}
330
10C2
100
AcDbXrecord
280
     1
  1
AcDbDs::LegacySchema
  2
AcDbDs::Legacy
280
     1
 91
        0
  0
XRECORD
  5
10BF
102
{ACAD_REACTORS
330
10C2
102
}
330
10C2
100
AcDbXrecord
280
     1
  1
AcDbDs::IndexedPropertySchema
  2
AcDs:Indexable
280
     1
 91
        0
  0
XRECORD
  5
10C0
102
{ACAD_REACTORS
330
10C2
102
}
330
10C2
100
AcDbXrecord
280
     1
  1
AcDbDs::HandleAttributeSchema
  2
AcDbDs::HandleAttribute
280
     7
 91
        1
284
     1
  0
XRECORD
  5
10C7
102
{ACAD_REACTORS
330
10C6
102
}
330
10C6
100
AcDbXrecord
280
     1
102
DISPLAYNAME
  1
Metric50
102
FLAGS
 90
        0
  0
XRECORD
  5
1FA
102
{ACAD_REACTORS
330
1F9
102
}
330
1F9
100
AcDbXrecord
280
     1
 70
     1
 90
429727718
  1
D62C5603-E3A1-4AEA-B7FB-FE5D8D0755AF
310
504B03040A0000080000CC70623B3DEE336E79000000790000001B0000006175746F6465736B2D64657369676E2D7061636B6167652E786D6C3C3F786D6C2076657273696F6E3D22312E302220656E636F64696E673D227574662D3822203F3E3C666F726D6174733E3C666F726D61743E687474703A2F2F736368656D612E
310
6175746F6465736B2E636F6D2F64657369676E2D7061636B6167652F323030393C2F666F726D61743E3C2F666F726D6174733E504B0304140006080800CC70623BD486FD9CA0000000F4000000130000005B436F6E74656E745F54797065735D2E786D6C7D8EC10E82300C865F65E91D8A1E8C310C0EEA1BF002731658846E
310
D98AC1B77784ABF1D8FE5FBFBF75BBCE937A534CCEB38643598122B6FEE978D0B0485F9C41B54DDD7D022595594E1A469170414C76A4D9A4D207E29CF43ECE46F218070CC6BECC4078ACAA135ACF422C856C0E68EA1BF5669944DDD7BCDE7B1F8E415D77AECB980613C2E4AC91FC167A2B244592486606FC29C8FD7F045B9A
310
EF7053A7E60B504B0304140006080800CC70623B853B8169EB0000007C01000008000000636F72652E786D6C8D90416EC3201045AF62CDB6C206821CC7C244919D9CA01740401C94182C03558F5F9C3852BBEB6A467FFE9B197D7EFC9E1EC5975982F5AE035262288C535E5B377690E21535501C055FBC8FBF6C503839990E
310
5619041F179FE64D52DE45E362569DD7661365082642A11EB9E920A89B99642953CC8E702F67A9EE7234257977194EC9EAE275C4EABCCF5EAD5940D4AC6F0E35A568B8F43562CD7046CD199FD07E60174276A7BE677B5EADB0E0D14EEFFB6A31321A0D82627C4084204C3F096B71DD52F6819B16635EADF63F509AF53FA164
310
5DDCD1EDDD17164090FCC8732078B56691CB33A85CD7DCC40F504B0304140006080800CC70623B55019EA25F0000007C00000007000000636E782E786D6C4DCB3B0E80201045D1AD90E915ED2CF8AC45050C11660C8261F98AB1B07AC9C97D42D718D865D3E909258CFD00CCE24AC6E326A164D74DC0B4128928FF32603847
310
2BA13128B1252AC747C6BAB984FC68F0B87FE8960A5C09FE86CFB69FBA01504B0304140006080800CC70623BDBABAAF470010000D40300000C0000006662782F636F72652E786D6CC553D16E823014FD95A6AF4B694182CC941A83FA05FB810A9511A125A5257EFE2E82712ECEB8A7F100CD39F7F69E734AF9FADC366850B6
310
AF8DCE7018308C942E4C59EB2AC3DE1D498AD15A706B8CFB56869196ADCAF00863C12B6B7C374385D14E6907A836A59A41D9F7CA615434B0C8705F7CAA5606D23BA8E84F41278B93AC54100640439DE0BDB320004D43C63716C7C399D30917DCFBBA9CD9BA8469F5B156168B24CED3F7248AC8769F27244EB73B92EED8862C
310
B7F13E0C179B3C8F979C8ECD82BBBABDAA2BAC924E9558448CBD9330242CFA08E3154B5651FCC6D215639C8EE5774DBE2B5F6CF2B5768B68963BB5F5588420E442FC700B1139D4CB01F450C1E918227C2E09DF070D8140C84E1E9AAB8F1340832A9CB13130A5F1376A908D57309505ECF2A0DF179C4E9D30F5B239B87E3823
310
7A79C6F31DE1A8A5AEC08474B03C7837EAE4938639B44E5932B833D2C6B6B279CDC613877FA26EE21F4A2A4C63EC7F29A2F301D1F9F7A0E37D145F504B0304140006080800CC70623B9C113CC27E0000009D0000000B0000006662782F636E782E786D6C4DCCDF0A83201C86E15B91DFB94BFB330DD428C8FB886521330DA7
310
6397BF1A1DECE883878F57749FCDA1B7892F1BBC047A23808C7F84D9FA55424E0BE6803A256208E9EF06C84F9B91703228B1C690F78B66B34CD9A5439DF5CF0BFBF65E35BCA1B8D6A5C6F540381E886698B5741C695F9503EBA150A2F8958E3DC3EA0B504B0304140006080800CC70623B7DF2F77C2A010000120200003100
310
00006662782F41393633353835312D344632462D344230382D423046372D3739314545314133324237412F636F72652E786D6C8D51DB8EC22014FC15C2939B0D2DB4B45643319AE817EC0F6041255A68B86CFCFC856D4D76DF7CE190393373060EDB3DC707F856CE6B6B7A480A0C81328395DA5C7B18C3057510EC3873D686
310
3F34088C18550F330C39BB3A1BA7051AAC09CA84841A2BD5020AEF55806078A44B0FFD7053A328440C89E1EFC52486BBB8AA8214A99D789CF9E05200300FC927E4FB4D5B375D43103D5527440FB843077C5AA3F5861C8F645F5787F59E95B390B318B55CE45AA638FAA2957BD7248B390B7A7CC51F9C124149C82B8C378810
310
84AB2F42B7B8DD56F413775B8C5999E9FF4471926F8AA236A1AE96B8B3CC434E5839373893369E1FAF30EA395917409EB7F26AF8801C171837A4A6AC9C89E9F9C9B1A58BA30FD6A5EF5DDDCF894B9AD9B6A59C957943A9FCAE2FD5BC4DFE03504B0304140006080800CC70623BAD7543B64E01000033030000300000006662
310
782F41393633353835312D344632462D344230382D423046372D3739314545314133324237412F636E782E786D6CD593CD6EC32010845F0571AD6CE3D48AD20813A9873E410FBD12D82434182C7EAAE6EDBB2424CD25871E7B41D6EC30B3FA84F9E67BB2E40B4234DE8DB46F1925E094D7C6ED479AD3AE5951B2113C789FEE
310
6C943839C1488B4C05DF079FE72A69D8C96C13AAD6B8631503449F83828872B949AC57D26200B826A308D316B4064D6E46FCDA41C05550DC9E483A00797BFD207EFB092A45DE9514C1BBD22178396BD39D891265658C238DEA00936C654E5E433CB65A26D9F6EDB5EBC14EBF49A45CB856E66048291F6939A9A81BB5C89177
310
38143CA680F4AA299D66A042CEB3354A2684DC9D8D178FE0D9B8B41CAAD720F880EE7EF93C0C18769E099ECC04D5A102C8049A8A05632F4DDF376CF1DE0F6BB65C2F8627B65A33C6BB62177CEBBDAD973006829F89F22E814B54F4BC2BE347F8AA8F681390B50FA73F804400B5F542E796F19FF974E7F78DB802FE05E20750
310
4B0304140006080800CC70623BE75B7789680500003C100000340000006662782F41393633353835312D344632462D344230382D423046372D3739314545314133324237412F6F626A656374732E786D6CAD575B8F9B3818FD2B887D06C22499CB8AA1CA655245D5B455A356FB305264C061D8018C6C3393D95FBFC7600890
310
A4CD5EF210B0B1BFEBF98E3F7B1FF6596ABC522E1296DF9BAE3D320D9A872C4AF2F8DE2CE5CEBA358D0FBEC719939D65A691938CDE9B6ADAF4BD98B3B2D05311DD91329583D9D5FC0F438434A7A611A644887B5384CF34233629258BA878B12322891DEFF6B66BD70BFB62634E8AE781D082709A4B588AF91C528CDA28B73F
310
1C998EEF39EABBEFA97FBD6A7C7E9553F9D3D79FE442923C3C523610337627CB87ABE99D359D4CC6D6E4FACAB5E6ABF9D2726FC6A3C5F56271377BB88362213924694B38DD99FE47C48627A1E7D49F5A8BB5E1A74C0A599ED3B0F21F1E56366B89112D681E218F0915D0D6F17AD41FBA2A369DCF6335D62ABBD39779D5DDD1
310
11D4D8DE3CBB96B2E04FB8202E41051754A1AA8E8F76B4C6DFE810B580B1547F4B84911149794252234D024EF8BBE963A95AE27B3D310A9D5C215C7960FAEE415ED75694C6AFB17BCACA5D99A60A9AA65F217B0BFC53292ACB92BF283FAD0D3621576592CB5BED907C2FA8E9DF794E35E97BEA31BED21FEB401ABB94C44839
310
DCACBF0E1C5DA8DA5B2F4DFFD32AD86F543D9E565E7056502E157C00AD2671CD534549AB752FCA9CDA00677A313F04E51B22FF19E57B300579E3C97EB29F682D92935CEC18CF901B7B54FD8C51F362B56FC72FE0B3C1EAE335EDCCBF5AEC39ADB17DC238973F804BA5E6F6BFE7AF1FB32E523BE9F3BD571418E3631DCA4D48
310
5250CF639223210A9446CA30052EDF057BD35F8329C1ECD84552BF0DC8D18BE7BCE23BFE6BD960AB4A7DE79923A103BEBD80F911CBAA2C60DB19B01CF164A5583B772EE6D3FFA56666CBCDA74DC97724A48F9A58967497E489C4D979006FD7A05E227A1EBDD0F737C623387A9C844D3709995625106D157315F8B8392CD4E0
310
A0B9A720C4BE9829CEF37EA1E13111214D53925356365ADA634861B52519DD27A00AEB808EAF0628E6F435519D446F45CF2C9CF5214F0A15B2F6D06B79DA3EE3CBF7F56780D2F4E7EF73A0F5E5B02A38D07DC852C6B7C1FBB6664213E0C39E3EBA7FF4E1AD23EA2829407C85E586727488B751B2DB9502BC7B228A3FD68B6E
310
A65A22397E690AA8D158D7E404EC8CDA235CC3B7D1898680131CEC2CDF2638C65196279577750F15884AEE19F94199155B92B13297978469D4F8D358DF0AEF7631E28DC8F0D9F437D5D39A83B2231A1D52D543813A824EF8D44BCFF2FA6A31BD1E8DAD87F1CCB526B3879935BF59CDADD5C37479BB1CDD4CA7B3556B516589
310
EF352754B706114D9C885EC9131DE6EFEB43D99AFE2391C2F958179413D7CFEF6B1B6DB1E7600F00DE6E5C67454A339A4BA2E0FBA85ED26F045D454F463DBFCE484C2F90F2E5E3666003662ED8F755951A7D1BECD5B30B550B2785C8E7320B7292A4838DDA71BBC863ED7613CAF659337A3354231D4FF4A182A54904C2898C
310
98B28C4AD0CE056CCF332A80986E571EE9DBC305BB5FEB7E509220A58D25CF042D712A806AC0AD0C657FDEF80D2D9CEAA2EE4D1C76F60BFE74219A06527D6F82DF6412526107381E55E353090704D085B52408A8913C4ED159D79BDA71BB4BC506F4831350EB6F975CD22D69BF7AC49B91A2C0A9DDA3D5CA36AD20FC478E37
310
E61844E2352865EBCB61A275A65283CAAA9DD27703B4102F5AF51EF5F573B75CBB5AD38BC845F7A49F82A0966A49C2E3EA5EA0ECD326CD965F1DB402C6FA8B51A4658C5C5E2EC9E214602E55810345408596591009A82E7E7FFACA19EEA299B14A0081A705CB3296EBC14CDF658DCD336EA6D1136881AAEB87B81AB9EE53D5
310
F5EB8BC8362082DA24122F98680A4E7930C01A0079749CEA14382A0783E5EBA5A10F8C098456A03D6A4AEB6BB881E2513747552A5DB22C7EDAF83BD5528081A365F7FF06504B0304140006080000CC70623B000000000000000000000000350000006662782F41393633353835312D344632462D344230382D423046372D37
310
39314545314133324237412F76657274696365732E62696E504B0304140006080800CC70623BF270F1330600000004000000360000006662782F41393633353835312D344632462D344230382D423046372D3739314545314133324237412F747269616E676C65732E62696E636660600000504B0304140006080000CC7062
310
3B000000000000000000000000370000006662782F41393633353835312D344632462D344230382D423046372D3739314545314133324237412F617474726962757465732E62696E504B0304140006080800CC70623B08DA0BD19000000041010000360000006662782F41393633353835312D344632462D344230382D4230
310
46372D3739314545314133324237412F6469726563746F72792E786D6C858F410AC3201045AF22B36F53E9A60B35CBEEBAE80D244E44489C6234F4F835464A48035D0DF398FF9F8AF63D0E6CC63039F212F8F9020C7D47C6792B21C5FE7403D62A1188E2E60C98D7234A5830286103A55745067B9D86B8A3CF9C7F90C11DE6
310
07FB144396D7B6A82D282E9A152AD114D5EF2CB866EEE831B8EEA07A7BB5A8D7D61A2BAAEB7FD5F70921FF497D00504B0304140006080800CC70623BEDD1DC58FD000000A00100003B0000006662782F41393633353835312D344632462D344230382D423046372D3739314545314133324237412F7265736F75726365732F
310
636F72652E786D6C8D504B6E833010BD0A9A6D65B00922041947112427E8052C33A156828DFCA97AFC9A40A576D7CDCCE87D344F8F9FBFE667F689CE6B6B3A6039850C8DB2A336530731DC4903D95970676DF82583CCC8193B5861107C72362E3BA4AC096842428D1D7107A5F7182053CF7474E0D507CE32973124857FE48B
310
540F3961CEF244279DE03EB81420DB9EAC1384436FA353E879B1B182C7A8C75DA3C7F453DF353A1075D537A7BA6464B8F535A99AE14A9A2BBD90E350DD183B5CFABE3AF262350B1EF4FC9351399401471025A527C218A1E53BAB5A5AB765F5469B96525EACF23FA6B88CFF34456DC2A1DCE36E360F82A5202F42F062ED2BAD
310
579969AFDD8A6F504B010214000A0000080000CC70623B3DEE336E79000000790000001B00000000000000000000000000000000006175746F6465736B2D64657369676E2D7061636B6167652E786D6C504B01021400140006080800CC70623BD486FD9CA0000000F40000001300000000000000000000000000B20000005B
310
436F6E74656E745F54797065735D2E786D6C504B01021400140006080800CC70623B853B8169EB0000007C010000080000000000000000000000000083010000636F72652E786D6C504B01021400140006080800CC70623B55019EA25F0000007C000000070000000000000000000000000094020000636E782E786D6C504B
310
01021400140006080800CC70623BDBABAAF470010000D40300000C00000000000000000000000000180300006662782F636F72652E786D6C504B01021400140006080800CC70623B9C113CC27E0000009D0000000B00000000000000000000000000B20400006662782F636E782E786D6C504B01021400140006080800CC70
310
623B7DF2F77C2A010000120200003100000000000000000000000000590500006662782F41393633353835312D344632462D344230382D423046372D3739314545314133324237412F636F72652E786D6C504B01021400140006080800CC70623BAD7543B64E010000330300003000000000000000000000000000D2060000
310
6662782F41393633353835312D344632462D344230382D423046372D3739314545314133324237412F636E782E786D6C504B01021400140006080800CC70623BE75B7789680500003C10000034000000000000000000000000006E0800006662782F41393633353835312D344632462D344230382D423046372D3739314545
310
314133324237412F6F626A656374732E786D6C504B01021400140006080000CC70623B0000000000000000000000003500000000000000000000000000280E00006662782F41393633353835312D344632462D344230382D423046372D3739314545314133324237412F76657274696365732E62696E504B01021400140006
310
080800CC70623BF270F133060000000400000036000000000000000000000000007B0E00006662782F41393633353835312D344632462D344230382D423046372D3739314545314133324237412F747269616E676C65732E62696E504B01021400140006080000CC70623B0000000000000000000000003700000000000000
310
000000000000D50E00006662782F41393633353835312D344632462D344230382D423046372D3739314545314133324237412F617474726962757465732E62696E504B01021400140006080800CC70623B08DA0BD1900000004101000036000000000000000000000000002A0F00006662782F41393633353835312D344632
310
462D344230382D423046372D3739314545314133324237412F6469726563746F72792E786D6C504B01021400140006080800CC70623BEDD1DC58FD000000A00100003B000000000000000000000000000E1000006662782F41393633353835312D344632462D344230382D423046372D3739314545314133324237412F7265
310
736F75726365732F636F72652E786D6C504B0506000000000E000E0080040000641100000000
  0
XRECORD
  5
1F8
102
{ACAD_REACTORS
330
1F7
102
}
330
1F7
100
AcDbXrecord
280
     1
 70
     1
 90
429727718
  1
30362254-06B7-45E0-A893-8CFA70E3D6BC
310
504B03040A0000080000CC70623B3DEE336E79000000790000001B0000006175746F6465736B2D64657369676E2D7061636B6167652E786D6C3C3F786D6C2076657273696F6E3D22312E302220656E636F64696E673D227574662D3822203F3E3C666F726D6174733E3C666F726D61743E687474703A2F2F736368656D612E
310
6175746F6465736B2E636F6D2F64657369676E2D7061636B6167652F323030393C2F666F726D61743E3C2F666F726D6174733E504B0304140006080800CC70623BD486FD9CA0000000F4000000130000005B436F6E74656E745F54797065735D2E786D6C7D8EC10E82300C865F65E91D8A1E8C310C0EEA1BF002731658846E
310
D98AC1B77784ABF1D8FE5FBFBF75BBCE937A534CCEB38643598122B6FEE978D0B0485F9C41B54DDD7D022595594E1A469170414C76A4D9A4D207E29CF43ECE46F218070CC6BECC4078ACAA135ACF422C856C0E68EA1BF5669944DDD7BCDE7B1F8E415D77AECB980613C2E4AC91FC167A2B244592486606FC29C8FD7F045B9A
310
EF7053A7E60B504B0304140006080800CC70623B1EC5D7A3EB0000007C01000008000000636F72652E786D6C8D90416EC3201045AF82665B6103C6756C6122AB4D4ED00B204C5C94182C03558F5F9C3852BBEB6A467FFE9B197D71FC9E6FE8CBACC17AD7032D0820E3B41FAD9B7A48F1820F808E52ACDEC75F36404ECDA687
310
4D0629A6D5A76597B477D1B89855E747B38B2A041301E95B6E7A08FAD3CCAA50296647B8168BD2573599823EBB0CA76447F43862C7BCCF5EAC59410E4DDD9C7973C2755553CCCFA4C603E3040F1565ED3B1FDE4E432BCA0D9622DAF9795FAF464533826484B498524CD807E51D79ED187F21878E10516EF63F505AC67F42C9
310
BA58B1FDDD071640D2FCC87D2045B96591CB3DA85CB7DCE40F504B0304140006080800CC70623B55019EA25F0000007C00000007000000636E782E786D6C4DCB3B0E80201045D1AD90E915ED2CF8AC45050C11660C8261F98AB1B07AC9C97D42D718D865D3E909258CFD00CCE24AC6E326A164D74DC0B4128928FF32603847
310
2BA13128B1252AC747C6BAB984FC68F0B87FE8960A5C09FE86CFB69FBA01504B0304140006080800CC70623B8C9102E971010000D40300000C0000006662782F636F72652E786D6CC5535B6E833010BC8AE5DF0A6C08340F1947A84D4ED00B38C6A128602363A31CBFCB234A53A551FA553EC09AD9F5CE8C31DB9E9B1AF5CA
310
7695D1198E428A91D2D214952E33ECDD315861B4E5CC1AE3BE9561A445A3323CC098B3D21ADFCE9034DA29ED00D5A6503328BA4E398C640D8B0C77F253352214DE4145770A5B214FA2546114020D759C75CE8200340D19DE981F0F6746269C33EFAB6266AB02A655C74A59CCF365BADC27CB5D902ED22848F6340DF238A141
310
BE88E2F57B92BFEDF23523433367AE6A2EEAA455C2A902F398D2751045018D3FA264435F3771F242571B4A1919CA6F9A7C5B3CD9E42BED16F12C776AEB308F40C848FC700B1139D4891EF410CEC810227CC6846F8386402064270EF5C5C709A05E49676C024C61FC95EA45ED154CA5211D1FF4FB8291A913A68E9B83EBBB33
310
E2A7673CDE118E5AE8124C0807CB8377834E366998436B950D7A7746DAD846D4CFD978E0F04FD455FC5D49D2D4C6FE9722321F10997F0F32DC47FE05504B0304140006080800CC70623BFFEA85907E0000009D0000000B0000006662782F636E782E786D6C4DCCD10A83201886E15B91FFDC95D95A811AB6F23E625948A6C3
310
E9D8E5AF46073BFAE0E1E365ED67B3E8ADC3CB78C7815C7240DA3DFC64DCC221C519D7805AC182F7F1EF06C88D9BE6703008B6049F9E274D7A1E938DBB5AE3D6131B2589BA0D3D965551E0B2EA732C9B9A624AAEB41E3A557677029960D9AFB4EF11165F504B0304140006080800CC70623B4FEEA4082C0100001202000031
310
0000006662782F39464131463745442D413632322D343644302D413938332D3331353338454246344243312F636F72652E786D6C8D515B6EC32010BC0AE2AB55850DD871ED0813254D72825EC00192A2C460F1A872FC42ED48ED5F7E00CDCECCCEB26C731F6FE05B39AFADE921293004CA082BB5B9F43086336A21D870E6AC
310
0D7F68109861543DCC30E4ECE26C9C164858139409093556AA051CBC570102714B8F1E7AF1A5C6A11862480C7F2DA6415C878B2A4891CA89C7990F2E050073937C42DE1DB7E4F87ED8A36D4329AA9B3D46DBAEAD504556557BD81DEBDD0761E52CE42C462D17B996298E3E6BE59E35C962CE821E1FF18553435012728A7187
310
0841987E927A8D9B35ADDF70BBC6989599FE4F1427F9A4286A132ABAC49D651EF234CD5CE04CDA78BA3DC2A8FB645D00B9DF8B57E215725C60BCA2A463E54C4CE327C7A65E1C7DB02E7DEFCBF594B864C5CA6CDBD49C957943E9FA5D5FBAF336F90F504B0304140006080800CC70623BAD7543B64E01000033030000300000
310
006662782F39464131463745442D413632322D343644302D413938332D3331353338454246344243312F636E782E786D6CD593CD6EC32010845F0571AD6CE3D48AD20813A9873E410FBD12D82434182C7EAAE6EDBB2424CD25871E7B41D6EC30B3FA84F9E67BB2E40B4234DE8DB46F1925E094D7C6ED479AD3AE5951B2113C
310
789FEE6C943839C1488B4C05DF079FE72A69D8C96C13AAD6B8631503449F83828872B949AC57D26200B826A308D316B4064D6E46FCDA41C05550DC9E483A00797BFD207EFB092A45DE9514C1BBD22178396BD39D891265658C238DEA00936C654E5E433CB65A26D9F6EDB5EBC14EBF49A45CB856E66048291F6939A9A81BB5
310
C8917738143CA680F4AA299D66A042CEB3354A2684DC9D8D178FE0D9B8B41CAAD720F880EE7EF93C0C18769E099ECC04D5A102C8049A8A05632F4DDF376CF1DE0F6BB65C2F8627B65A33C6BB62177CEBBDAD973006829F89F22E814B54F4BC2BE347F8AA8F681390B50FA73F804400B5F542E796F19FF974E7F78DB802FE05
310
E207504B0304140006080800CC70623B16AB87BA640500003C100000340000006662782F39464131463745442D413632322D343644302D413938332D3331353338454246344243312F6F626A656374732E786D6CAD575B6FA33818FD2B887DE6924B3BED8A326A92B68A663B534DD4D13E548A0C38942D60649B369D5FBFC7
310
600890A493BDE42160637FD7F31D7FF63E6FB3D478A55C242CBF3247B66B1A340F5994E4F19559CA8D75611A9F7D8F33263BCB4C232719BD32D5B4E97B316765A1A722BA21652A07B3B7B33F0D11D29C9A46981221AE4C113ED38CD8A4942CA2E2C58E882476BCD9DA23BB5ED8171B73523C0F841684D35CC252CCE79062D4
310
468DFA43D7747CCF51DF7D4FFDEB5593E3AB9CCA9FBEFE241792E4E19EB28198C968BAB8199F5D5A67D3E9C49A9E8F47D6EC76B6B0469F26EEFC7C3EBFBCBEB98462213924694B38DD98FE1D62C393D073EA4FADC5DAF04326852CCF6958F90F0F2B9BB5C48816348F90C7840A68EB78EDF68723159BCEE7891A6B95DDE9D3
310
BCEAEEE8086A6C6F9E5D4B59F0175C10A7A0820BAA5055C7473B5AE3CFDD452D602CD5DF12616444529E90D448938013FE6EFA58AA96F85E4F8C42275708571E98FE6827AF6B2B4AE3D7D83D64E5A64C53054DD3AF90BD06FEA9149565C94FCA0F6B834DC85599E4F2423B24DF0B6AFA979E534DFA9E7A4CC6FA631D486393
310
921829879BF5D781A373557BCB85E97FB90DB62B558F8795179C15944B051F40AB495CF35451D26A4727654E6D8033BD98EF82F21D91FF8AF2DD9982BCF1643BDD4EB516C9492E368C67C88DED563FC36D5EACF66DFF057C3658BDBFA69DF9578B3DA735B64F18C7F20770A9D45CFCF7FCF563D6456A277DBEF78A02637CA2
310
43B90A490AEAB94F72244481D24819A6C0E59B606BFA4B3025981DBB48EAB701D97BF19C577CC77F2D1B6C55A9EF3C732474C0B727303F625995056C3B02963D9EAC146BE78EC5FCEC7FA999EBC5EACBAAE41B12D27B4D2C0BBA49F244E2ECDC81B76B502F113D8F5EE8FB1BE3111CDD4FC2AA9B844CAB1288B68AB90A7CDC
310
1C166AB0D3DC5310625FCC14E779BFD0709F8890A629C9292B1B2DED31A4B0DA928CEE135085754027E3018A397D4D5427D15BD1330B677DC8934285AC3DF45A9EB68FF8F2B8FC0A509AFEECFD0FF2DE25CC6047F7214B195F07EFEB9A094D800F7BFAE8FED187B78EA8A3A400F115961BCAD1215E47C966530AF0EE8128FE
310
58CEBB996A8964FFA529A046635D9353B0336A8F700DDF46271A024E70B0B37C9DE01847591E54DED53D54202AB947E4076556AC49C6CA5C9E1226B7F1A7B1BE15DEED62C41B91E1B3E9AFAAA735036547343A925075041DF0A9979E893B391F8FCFA6967B3EFB644DCF6E5CEBFAE272625DCC6FAF3FB93793C5F90CE1EF57
310
407342756B10D1C489E8953CD1617E5CEECAD6F4EF8914CE5D5D504E5C3F1F9736DA62CFC11E00BCDDB8CC8A9466349744C1F75EBDA4DF09BA8A9E8C7A7E9991989E20E5DBDD6A6003664ED8F7A04A8DBE0DF6EAD9B9AA858342E47399053949D2C146EDB85DE4B176BB0965FBAC19BD19AA918E27FA50C1D22402E144464C
310
59462568E704B6E71915404CB72B8FF4EDE184DDAF753F284990D2C6926782963815403548A70C657FDEF80D2D9CEAA2AE4C1C76F60BFE74219A06527D6582DF6412526107381E55E353090704D085B52408D0933C4ED159D79BDA71BB4BC506F4831350EB6F979CD22D69BF7AC49B91A2C0A9DDA3D5CA36AD20FC478E37E6
310
1844E2352865EBCB6EA275A652E3836BE04EFB400BF1A2556F515F1FBB35B2AB35BD889C744FFA1004B5544B121E57F70215746DD2F5E2C1412B602CBF19455AC6C8E5E9922C4E01E65215385004546899059180EAFCF7A707CE7017CD8CDB0410789AB32C63B91E5CEBBBACB17AC6CD347A022D5075FD106377347AAABA7E
310
7D11590744509B44E205134DC1290F06580320F78E537D3D73540E06CB970B431F185308AD40BBD794D6D77003C5A36E8EAA54BA64597CD8F83BD552A080A365F7FF06504B0304140006080000CC70623B000000000000000000000000350000006662782F39464131463745442D413632322D343644302D413938332D3331
310
353338454246344243312F76657274696365732E62696E504B0304140006080800CC70623BF270F1330600000004000000360000006662782F39464131463745442D413632322D343644302D413938332D3331353338454246344243312F747269616E676C65732E62696E636660600000504B0304140006080000CC70623B
310
000000000000000000000000370000006662782F39464131463745442D413632322D343644302D413938332D3331353338454246344243312F617474726962757465732E62696E504B0304140006080800CC70623B08DA0BD19000000041010000360000006662782F39464131463745442D413632322D343644302D413938
310
332D3331353338454246344243312F6469726563746F72792E786D6C858F410AC3201045AF22B36F53E9A60B35CBEEBAE80D244E44489C6234F4F835464A48035D0DF398FF9F8AF63D0E6CC63039F212F8F9020C7D47C6792B21C5FE7403D62A1188E2E60C98D7234A5830286103A55745067B9D86B8A3CF9C7F90C11DE607
310
FB144396D7B6A82D282E9A152AD114D5EF2CB866EEE831B8EEA07A7BB5A8D7D61A2BAAEB7FD5F70921FF497D00504B0304140006080800CC70623B0D6EF93BFE000000A00100003B0000006662782F39464131463745442D413632322D343644302D413938332D3331353338454246344243312F7265736F75726365732F63
310
6F72652E786D6C8D50596E833010BD0A9ADFCA60B334011947A8694ED00B586642AC041B79A97AFC9A40A5F6AF3F33A3B7689E1E3F7DCD8FEC139DD7D6F4C0720A191A65476DA61E62B892236427C19DB5E1970C322367EC618541F0C9D9B8EC90B226A009093576C41D94DE63804C3DD2D18357379C652E63480A7FCF17A9
310
EE72C29CE5894E3AC17D702940B63D59270887DE46A7D0F36263058F518FBB468FE9A7BE6A7420864373B8D4873369AA8691FA421B3294352543C5CAF65C0F6FEF43CB8BD52C78D0F34F46E550061C419494B6843142CB0F5677F4B52BEB177AEC28E5C52AFF638ACBF84F53D42654E51E77B379102C05791282176B5F693D
310
CB4C7BED567C03504B010214000A0000080000CC70623B3DEE336E79000000790000001B00000000000000000000000000000000006175746F6465736B2D64657369676E2D7061636B6167652E786D6C504B01021400140006080800CC70623BD486FD9CA0000000F40000001300000000000000000000000000B20000005B
310
436F6E74656E745F54797065735D2E786D6C504B01021400140006080800CC70623B1EC5D7A3EB0000007C010000080000000000000000000000000083010000636F72652E786D6C504B01021400140006080800CC70623B55019EA25F0000007C000000070000000000000000000000000094020000636E782E786D6C504B
310
01021400140006080800CC70623B8C9102E971010000D40300000C00000000000000000000000000180300006662782F636F72652E786D6C504B01021400140006080800CC70623BFFEA85907E0000009D0000000B00000000000000000000000000B30400006662782F636E782E786D6C504B01021400140006080800CC70
310
623B4FEEA4082C0100001202000031000000000000000000000000005A0500006662782F39464131463745442D413632322D343644302D413938332D3331353338454246344243312F636F72652E786D6C504B01021400140006080800CC70623BAD7543B64E010000330300003000000000000000000000000000D5060000
310
6662782F39464131463745442D413632322D343644302D413938332D3331353338454246344243312F636E782E786D6C504B01021400140006080800CC70623B16AB87BA640500003C1000003400000000000000000000000000710800006662782F39464131463745442D413632322D343644302D413938332D3331353338
310
454246344243312F6F626A656374732E786D6C504B01021400140006080000CC70623B0000000000000000000000003500000000000000000000000000270E00006662782F39464131463745442D413632322D343644302D413938332D3331353338454246344243312F76657274696365732E62696E504B01021400140006
310
080800CC70623BF270F133060000000400000036000000000000000000000000007A0E00006662782F39464131463745442D413632322D343644302D413938332D3331353338454246344243312F747269616E676C65732E62696E504B01021400140006080000CC70623B0000000000000000000000003700000000000000
310
000000000000D40E00006662782F39464131463745442D413632322D343644302D413938332D3331353338454246344243312F617474726962757465732E62696E504B01021400140006080800CC70623B08DA0BD190000000410100003600000000000000000000000000290F00006662782F39464131463745442D413632
310
322D343644302D413938332D3331353338454246344243312F6469726563746F72792E786D6C504B01021400140006080800CC70623B0D6EF93BFE000000A00100003B000000000000000000000000000D1000006662782F39464131463745442D413632322D343644302D413938332D3331353338454246344243312F7265
310
736F75726365732F636F72652E786D6C504B0506000000000E000E0080040000641100000000
  0
XRECORD
  5
175
102
{ACAD_REACTORS
330
173
102
}
330
173
100
AcDbXrecord
280
     1
270
     1
271
     1
  0
XRECORD
  5
174
102
{ACAD_REACTORS
330
173
102
}
330
173
100
AcDbXrecord
280
     1
270
     1
271
     1
  0
XRECORD
  5
1FB
102
{ACAD_REACTORS
330
173
102
}
330
173
100
AcDbXrecord
280
     1
 70
     0
 90
1673772943
  1
ECE7A1D2-D628-4531-984C-D00F80459256
310
504B03040A0000080000CC70623B3DEE336E79000000790000001B0000006175746F6465736B2D64657369676E2D7061636B6167652E786D6C3C3F786D6C2076657273696F6E3D22312E302220656E636F64696E673D227574662D3822203F3E3C666F726D6174733E3C666F726D61743E687474703A2F2F736368656D612E
310
6175746F6465736B2E636F6D2F64657369676E2D7061636B6167652F323030393C2F666F726D61743E3C2F666F726D6174733E504B0304140006080800CC70623BD486FD9CA0000000F4000000130000005B436F6E74656E745F54797065735D2E786D6C7D8EC10E82300C865F65E91D8A1E8C310C0EEA1BF002731658846E
310
D98AC1B77784ABF1D8FE5FBFBF75BBCE937A534CCEB38643598122B6FEE978D0B0485F9C41B54DDD7D022595594E1A469170414C76A4D9A4D207E29CF43ECE46F218070CC6BECC4078ACAA135ACF422C856C0E68EA1BF5669944DDD7BCDE7B1F8E415D77AECB980613C2E4AC91FC167A2B244592486606FC29C8FD7F045B9A
310
EF7053A7E60B504B0304140006080800CC70623BD9DDAED0EC0000007C01000008000000636F72652E786D6C8D90416EC3201045AF82665B61836D9CD8C2444DD39CA01740405C94182C03558F5F9C3852BBEB6A467FFE9B197D7EF89E6EE8CB2CC17A37002D0820E394D7D68D03A478C17B4007C117EFE32F1B20272733C0
310
2A83E0E3E2D3BC49CABB685CCCAAF3DA6CA20CC14440EA969B0182FA34932C648AD911AEC52CD5558EA6A0CF2EC329598D1E47ACCEFBECC59A050463A7EA5833865FEBDD0E37353BE3EE8DBDE3F6786A48D375FBF6CC78B9C282473B3DEFABC5C86834888A900E538A49F5419B9EB47DD5BC907D4F082F57FB1F28CDFA9F50
310
B22ED6D5F6EE030B20687EE43E10BC5CB3C8E51E54AE6B6EE207504B0304140006080800CC70623B55019EA25F0000007C00000007000000636E782E786D6C4DCB3B0E80201045D1AD90E915ED2CF8AC45050C11660C8261F98AB1B07AC9C97D42D718D865D3E909258CFD00CCE24AC6E326A164D74DC0B4128928FF326038
310
472BA13128B1252AC747C6BAB984FC68F0B87FE8960A5C09FE86CFB69FBA01504B0304140006080800CC70623BA24EB22D72010000D40300000C0000006662782F636F72652E786D6CC5535B6E833010BC8AE5DF0A6C5E49888CA3A6694ED00B38E05014B091B1518EDFE511A5A9D228FD2A1F60CDEC7A67C6986DCE4D8D7A
310
69BA4AAB0C073EC548AA5C17952A33ECECD15B61B4E1CC686DBF9561A44423333CC098B3D268D7CE50AE9595CA02AA74216750749DB418E5352C32DCE59FB211BE70162ABA93DF8AFC244AE9073ED050C759670D0840D390E18DF9F1706664C23973AE2A66B62A605A75ACA4C13C4976E1364A12EF355A2EBD384AF65EFA96
310
BC7B8BED2EA6719AAE16FB8491A199335B351775B991C2CA02F390D2D40B028F861F41BCA68B7518BFD0D59A524686F29B26D7164F36B94AD9289CE54E6D1DE6010819891F6E21228B3AD1831EC219194284CF98F06DD01008846CC5A1BEF83801D4CBDC6A1303536877A57A513B0953A94FC707FDBE6064EA84A9E3E6E0FA
310
EE8CF0E9198F7784A316AA0413C2C2F2E0ECA0934D1AE6D05A69BCDE9E91D2A611F573361E38FC1375157F5752AE6B6DFE4B11990F88CCBF0719EE23FF02504B0304140006080800CC70623B408A7D3B7C0000009D0000000B0000006662782F636E782E786D6C4DCCD10A83201886E15B91FFDC552A92A0064DBC8F581632
310
D3703A76F9ABD1C18E3E78F878E5F0D9027ABBFCF2292AE86E2D20171F69F6715550CB827B40839639A5F2770314A7CD293819B45C73AAFB45B35BA61ACAA1C1C7E7855C58C15BC331339661262CC762340413D68D77DA5B42298546CBE6573AF60CEB2F504B0304140006080800CC70623B449FB9BD290100001202000031
310
0000006662782F36394639363044362D344446342D343946362D394244322D3234314243333846323333332F636F72652E786D6C8D515B6EC32010BC0AE22B55850D98B871848994463E412FE002495162B07854397EA176A4F62F3F2C9A9D991D587EB84F37F0AD7D30CEF6905418026DA553C65E7A98E219ED203808EE9D
310
8B7F6810D871D23D2C3014FCE25D9A57483A1BB58D19B54EE9151C43D0110279CB971E06F9A5A7B11A53CC8C70ADE6515EC78BAE4895DB992778883E0700CB907242D17643D7E2538BD869608875438BBAE38922CAC8F1BDD90DB4691A5E2F42C153326A951B95E398B3D1FE599322163C9AE9115F7A3D46ADA0A018778810
310
84E907617BDCEE297BC5BB3DC6BC2EF47FA234AB2745C9D8D8D035EE220B50105E2F0DC1954B9FB747187D9F9D8FA0CCDB042D5FA0C015C65B42DF78BD10F3F3B363CB56C7109DCFDFBBB97E662ED92EB62D13BC2E1BCAE5777DB9966D8A1F504B0304140006080800CC70623BAD7543B64E01000033030000300000006662
310
782F36394639363044362D344446342D343946362D394244322D3234314243333846323333332F636E782E786D6CD593CD6EC32010845F0571AD6CE3D48AD20813A9873E410FBD12D82434182C7EAAE6EDBB2424CD25871E7B41D6EC30B3FA84F9E67BB2E40B4234DE8DB46F1925E094D7C6ED479AD3AE5951B2113C789FEE
310
6C943839C1488B4C05DF079FE72A69D8C96C13AAD6B8631503449F83828872B949AC57D26200B826A308D316B4064D6E46FCDA41C05550DC9E483A00797BFD207EFB092A45DE9514C1BBD22178396BD39D891265658C238DEA00936C654E5E433CB65A26D9F6EDB5EBC14EBF49A45CB856E66048291F6939A9A81BB5C89177
310
38143CA680F4AA299D66A042CEB3354A2684DC9D8D178FE0D9B8B41CAAD720F880EE7EF93C0C18769E099ECC04D5A102C8049A8A05632F4DDF376CF1DE0F6BB65C2F8627B65A33C6BB62177CEBBDAD973006829F89F22E814B54F4BC2BE347F8AA8F681390B50FA73F804400B5F542E796F19FF974E7F78DB802FE05E20750
310
4B0304140006080800CC70623B8D05915C650500003B100000340000006662782F36394639363044362D344446342D343946362D394244322D3234314243333846323333332F6F626A656374732E786D6CAD575B6FA33814FE2B887D06429276DA1565D4266D158D3A339A6846FB502932E050B66023DB74D2FDF5FB190C01
310
9276B2973C046C8ECFF53B17071F77456EBD502133CEAE6CDF9DD81665314F32965ED995DA3A17B6F5310C04E7AA47665B8C14F4CAD6DB7618A48257A5D94AE89654B91AEDDEDDFC61C998326A5B714EA4BCB265FC440BE2924AF184CA6737218AB8E976E7FA6E4338649B0A523E8D98964450A6A029F619B8588D52FE7039
310
B1BD30F0F4F730D0FF866AF6369557DB33949F31A9088B0F848DD8CCFCF9F2767A76E99CCDE733677E3EF59D9BBB9BA5E37F984D16E78BC5E5F5ED25044B25C0C96822E8D60EEFE11B91C581D77CEA34368A1F5329E68CD1B8B61F16D63A1B8E092D294B10C78C4A48EB593D192E7DED9BDEE7995E1B91FDEDD3ACEA9FE831
310
6A756F9F7D4D79F4274C90A7A04248AA51D5F8C718DAE06FB2F75AC4796EBE65D22A88A22223B995679120E2D50E41AA49C260C046A35368846B0BECD0DFF3EBEB8AD4F835768F69B9ADF25C43D30E6B646F807FAA64AD59F61715C7A54127C4AACA98BA3006A9D792DAE165E0D59B61A01FB3A9F9D838D2DAE62445C86166
310
F37564E842E7DE6A69879FEEA2DD5AE7E371E1A5E025154AC307D06A03D73EB5978C58FFA4C8E9033066E0F3BD53BEC1F39F91BE7B55103791EDE6BBB991A2046172CB4581D8B893FA674DDA17A77B3B7C413D1B511FD2743BFF8A38F03A658705E3ADF8015C3A3417FF3D7E439FF591DA0B5F18BC20C1B8981957AE6392A3
310
F43C640C01D1A0B4728E2DD4F26DB4B3C3152A252A3B4E913CEC1C72F012782FF88EFF8637AA552DBEF76408E8A8DE9E50F9E1CB3A2DA0DB1B6039A893B56063DC5B3E3FFB5F72E67AB9FEB4AEC496C4F4C1149625DD662C53E89D7BF0F6151A046260D1337DFDC94502430F83B0EE07A130A224BCAD7DAE1D9FB6CD422FF6
310
920702629C4BB9AE79C12F243C6432A6794E18E5552BA56B431AAB5D91317302B2B071E86C3A42B1A02F999E24061403B5D0EB639195DA655DD3EBEAB4FB862DDF579F014AD0E73C22F99E28DA57FB98E75C6CA2D74D53086D600F4786E0FE3144B771A8A7B900F03594DB8A633CBC49B2EDB69228BB479CF863B5E807AAAB
310
23872F6DFEB4129B949CA33823F58830E86D65621E10047D9DB34D862E8EAC3C2ABC2F7B2C40D67CDFE01F5545B92105AF983AC54D93D69E56FB8E797F88913F898A9FEC705D3F9D1B54EC8426FB500D40A03BD0119B06E1B95DDC7EB8F6975367793EBD70E66733DFB9BC982F9CE564727731999F5D4ECFCE3B8D6A4DC2A0
310
6D50FD148437D110834A64C6CDDF57FBACB5C307A2A477DFE4939736CFEF2B175371E0E10CF0DD1D5C15654E0BCA14D1E87DD02FF93782A162C0A3D95F1524A52770F972BF1EE9809D13CE7DD599467F8ECE9ADD85CE85A34CD45355448C64F9E8A031DC2D596ACC6E5DD93D9B82DE2EF5CAF81363A8E47996A0DE24564A79
310
4115AACE09C55E14540231FDA13C319787134EBF34E3A022514E5B4D9E0826E25C02D5805B15ABE1BEF51B26383D445DD9E875EE33FE4C22DA16427D65A3BCA92CA6D28DD01DF5DC53330704308475351050232CCD31583787BA75774AFB06E5070DD0C8EF484E19968C5D83BA5B90B244D31E54D55A372320FE4786B7EA58
310
44E135AA5467CB7EA333A61683CC6A8C3257034C10CF46F40EF9F5BE59BE5BD30C3C72D235E95D10345C1D45445A5F0BB47E46A5EBE5570F9380B5FA629579952296A773720405982B9DE04011506178964401AA8BDF1FBF0A8EAB6861DD6580C0E38217056766716DAEB2D6FA0917D3E4116581EADB879C4E7CFFB11EFACD
310
3D641311495D92C8676CB409A72D18610D803CE8A626049E8EC1887CB5B44CC39883690DDA8399B4B9855B481E7D71D4A9D22F96E5BB73BF5793020C02137BF837504B0304140006080000CC70623B000000000000000000000000350000006662782F36394639363044362D344446342D343946362D394244322D32343142
310
43333846323333332F76657274696365732E62696E504B0304140006080800CC70623BF270F1330600000004000000360000006662782F36394639363044362D344446342D343946362D394244322D3234314243333846323333332F747269616E676C65732E62696E636660600000504B0304140006080000CC70623B0000
310
00000000000000000000370000006662782F36394639363044362D344446342D343946362D394244322D3234314243333846323333332F617474726962757465732E62696E504B0304140006080800CC70623B08DA0BD19000000041010000360000006662782F36394639363044362D344446342D343946362D394244322D
310
3234314243333846323333332F6469726563746F72792E786D6C858F410AC3201045AF22B36F53E9A60B35CBEEBAE80D244E44489C6234F4F835464A48035D0DF398FF9F8AF63D0E6CC63039F212F8F9020C7D47C6792B21C5FE7403D62A1188E2E60C98D7234A5830286103A55745067B9D86B8A3CF9C7F90C11DE607FB14
310
4396D7B6A82D282E9A152AD114D5EF2CB866EEE831B8EEA07A7BB5A8D7D61A2BAAEB7FD5F70921FF497D00504B0304140006080800CC70623BCA768048FE000000A00100003B0000006662782F36394639363044362D344446342D343946362D394244322D3234314243333846323333332F7265736F75726365732F636F72
310
652E786D6C8D50596E833010BD0A9ADFCA60D600328E9AA639412F609909B1126CE4A5EAF16B0295DABFFECC8CDEA2797AECF8353F924FB44E193D409E5248504B332A3D0D10FC95B4901C39B3C6F85F3248B49871801506CE266BC2B243D2688FDA47549B11775038871E12F988C7004EDE7016A9083E2ADC3D5D84BC8B09
310
D33C8D74D471E6BC8D0192EDC93A815B742658898E651BCB59086ADC356A8C3FD555A1055ED7E7E254D615792D0F075295F585746FF53B694EE78A565DD736979A65AB9933AFE69F8CD2A2F038022F28ED489E135A7CE4554F9BBEA85E68DB53CAB255FEC71496F19FA6A0B42F8B3DEE6673C0F318E4497096AD7DC5F52C33
310
EEB55BFE0D504B010214000A0000080000CC70623B3DEE336E79000000790000001B00000000000000000000000000000000006175746F6465736B2D64657369676E2D7061636B6167652E786D6C504B01021400140006080800CC70623BD486FD9CA0000000F40000001300000000000000000000000000B20000005B436F
310
6E74656E745F54797065735D2E786D6C504B01021400140006080800CC70623BD9DDAED0EC0000007C010000080000000000000000000000000083010000636F72652E786D6C504B01021400140006080800CC70623B55019EA25F0000007C000000070000000000000000000000000095020000636E782E786D6C504B0102
310
1400140006080800CC70623BA24EB22D72010000D40300000C00000000000000000000000000190300006662782F636F72652E786D6C504B01021400140006080800CC70623B408A7D3B7C0000009D0000000B00000000000000000000000000B50400006662782F636E782E786D6C504B01021400140006080800CC70623B
310
449FB9BD290100001202000031000000000000000000000000005A0500006662782F36394639363044362D344446342D343946362D394244322D3234314243333846323333332F636F72652E786D6C504B01021400140006080800CC70623BAD7543B64E010000330300003000000000000000000000000000D20600006662
310
782F36394639363044362D344446342D343946362D394244322D3234314243333846323333332F636E782E786D6C504B01021400140006080800CC70623B8D05915C650500003B10000034000000000000000000000000006E0800006662782F36394639363044362D344446342D343946362D394244322D32343142433338
310
46323333332F6F626A656374732E786D6C504B01021400140006080000CC70623B0000000000000000000000003500000000000000000000000000250E00006662782F36394639363044362D344446342D343946362D394244322D3234314243333846323333332F76657274696365732E62696E504B010214001400060808
310
00CC70623BF270F13306000000040000003600000000000000000000000000780E00006662782F36394639363044362D344446342D343946362D394244322D3234314243333846323333332F747269616E676C65732E62696E504B01021400140006080000CC70623B00000000000000000000000037000000000000000000
310
00000000D20E00006662782F36394639363044362D344446342D343946362D394244322D3234314243333846323333332F617474726962757465732E62696E504B01021400140006080800CC70623B08DA0BD190000000410100003600000000000000000000000000270F00006662782F36394639363044362D344446342D
310
343946362D394244322D3234314243333846323333332F6469726563746F72792E786D6C504B01021400140006080800CC70623BCA768048FE000000A00100003B000000000000000000000000000B1000006662782F36394639363044362D344446342D343946362D394244322D3234314243333846323333332F7265736F
310
75726365732F636F72652E786D6C504B0506000000000E000E0080040000621100000000
  0
XRECORD
  5
176
102
{ACAD_REACTORS
330
173
102
}
330
173
100
AcDbXrecord
280
     1
270
     1
271
     1
  0
XRECORD
  5
177
102
{ACAD_REACTORS
330
173
102
}
330
173
100
AcDbXrecord
280
     1
270
     1
271
     1
  0
XRECORD
  5
10C5
102
{ACAD_REACTORS
330
10C4
102
}
330
10C4
100
AcDbXrecord
280
     1
102
DISPLAYNAME
  1
Metric50
102
FLAGS
 90
        0
  0
CELLSTYLEMAP
  5
10BA
102
{ACAD_REACTORS
330
162
102
}
330
162
100
AcDbCellStyleMap
 90
        3
300
CELLSTYLE
  1
TABLEFORMAT_BEGIN
 90
        5
170
     1
 91
        0
 92
    32768
 62
   257
 93
        1
300
CONTENTFORMAT
  1
CONTENTFORMAT_BEGIN
 90
        0
 91
        0
 92
      512
 93
        0
300

 40
0.0
140
1.0
 94
        5
 62
     0
340
11
144
6.0
309
CONTENTFORMAT_END
171
     1
301
MARGIN
  1
CELLMARGIN_BEGIN
 40
1.5
 40
1.5
 40
1.5
 40
1.5
 40
4.5
 40
4.5
309
CELLMARGIN_END
 94
        6
 95
        1
302
GRIDFORMAT
  1
GRIDFORMAT_BEGIN
 90
        0
 91
        1
 62
     0
 92
       -2
340
14
 93
        0
 40
1.125
309
GRIDFORMAT_END
 95
        2
302
GRIDFORMAT
  1
GRIDFORMAT_BEGIN
 90
        0
 91
        1
 62
     0
 92
       -2
340
14
 93
        0
 40
1.125
309
GRIDFORMAT_END
 95
        4
302
GRIDFORMAT
  1
GRIDFORMAT_BEGIN
 90
        0
 91
        1
 62
     0
 92
       -2
340
14
 93
        0
 40
1.125
309
GRIDFORMAT_END
 95
        8
302
GRIDFORMAT
  1
GRIDFORMAT_BEGIN
 90
        0
 91
        1
 62
     0
 92
       -2
340
14
 93
        0
 40
1.125
309
GRIDFORMAT_END
 95
       16
302
GRIDFORMAT
  1
GRIDFORMAT_BEGIN
 90
        0
 91
        1
 62
     0
 92
       -2
340
14
 93
        0
 40
1.125
309
GRIDFORMAT_END
 95
       32
302
GRIDFORMAT
  1
GRIDFORMAT_BEGIN
 90
        0
 91
        1
 62
     0
 92
       -2
340
14
 93
        0
 40
1.125
309
GRIDFORMAT_END
309
TABLEFORMAT_END
  1
CELLSTYLE_BEGIN
 90
        1
 91
        1
300
_TITLE
309
CELLSTYLE_END
300
CELLSTYLE
  1
TABLEFORMAT_BEGIN
 90
        5
170
     1
 91
        0
 92
        0
 62
   257
 93
        1
300
CONTENTFORMAT
  1
CONTENTFORMAT_BEGIN
 90
        0
 91
        0
 92
      512
 93
        0
300

 40
0.0
140
1.0
 94
        5
 62
     0
340
11
144
4.5
309
CONTENTFORMAT_END
171
     1
301
MARGIN
  1
CELLMARGIN_BEGIN
 40
1.5
 40
1.5
 40
1.5
 40
1.5
 40
4.5
 40
4.5
309
CELLMARGIN_END
 94
        6
 95
        1
302
GRIDFORMAT
  1
GRIDFORMAT_BEGIN
 90
        0
 91
        1
 62
     0
 92
       -2
340
14
 93
        0
 40
1.125
309
GRIDFORMAT_END
 95
        2
302
GRIDFORMAT
  1
GRIDFORMAT_BEGIN
 90
        0
 91
        1
 62
     0
 92
       -2
340
14
 93
        0
 40
1.125
309
GRIDFORMAT_END
 95
        4
302
GRIDFORMAT
  1
GRIDFORMAT_BEGIN
 90
        0
 91
        1
 62
     0
 92
       -2
340
14
 93
        0
 40
1.125
309
GRIDFORMAT_END
 95
        8
302
GRIDFORMAT
  1
GRIDFORMAT_BEGIN
 90
        0
 91
        1
 62
     0
 92
       -2
340
14
 93
        0
 40
1.125
309
GRIDFORMAT_END
 95
       16
302
GRIDFORMAT
  1
GRIDFORMAT_BEGIN
 90
        0
 91
        1
 62
     0
 92
       -2
340
14
 93
        0
 40
1.125
309
GRIDFORMAT_END
 95
       32
302
GRIDFORMAT
  1
GRIDFORMAT_BEGIN
 90
        0
 91
        1
 62
     0
 92
       -2
340
14
 93
        0
 40
1.125
309
GRIDFORMAT_END
309
TABLEFORMAT_END
  1
CELLSTYLE_BEGIN
 90
        2
 91
        1
300
_HEADER
309
CELLSTYLE_END
300
CELLSTYLE
  1
TABLEFORMAT_BEGIN
 90
        5
170
     1
 91
        0
 92
        0
 62
   257
 93
        1
300
CONTENTFORMAT
  1
CONTENTFORMAT_BEGIN
 90
        0
 91
        0
 92
      512
 93
        0
300

 40
0.0
140
1.0
 94
        2
 62
     0
340
11
144
4.5
309
CONTENTFORMAT_END
171
     1
301
MARGIN
  1
CELLMARGIN_BEGIN
 40
1.5
 40
1.5
 40
1.5
 40
1.5
 40
4.5
 40
4.5
309
CELLMARGIN_END
 94
        6
 95
        1
302
GRIDFORMAT
  1
GRIDFORMAT_BEGIN
 90
        0
 91
        1
 62
     0
 92
       -2
340
14
 93
        0
 40
1.125
309
GRIDFORMAT_END
 95
        2
302
GRIDFORMAT
  1
GRIDFORMAT_BEGIN
 90
        0
 91
        1
 62
     0
 92
       -2
340
14
 93
        0
 40
1.125
309
GRIDFORMAT_END
 95
        4
302
GRIDFORMAT
  1
GRIDFORMAT_BEGIN
 90
        0
 91
        1
 62
     0
 92
       -2
340
14
 93
        0
 40
1.125
309
GRIDFORMAT_END
 95
        8
302
GRIDFORMAT
  1
GRIDFORMAT_BEGIN
 90
        0
 91
        1
 62
     0
 92
       -2
340
14
 93
        0
 40
1.125
309
GRIDFORMAT_END
 95
       16
302
GRIDFORMAT
  1
GRIDFORMAT_BEGIN
 90
        0
 91
        1
 62
     0
 92
       -2
340
14
 93
        0
 40
1.125
309
GRIDFORMAT_END
 95
       32
302
GRIDFORMAT
  1
GRIDFORMAT_BEGIN
 90
        0
 91
        1
 62
     0
 92
       -2
340
14
 93
        0
 40
1.125
309
GRIDFORMAT_END
309
TABLEFORMAT_END
  1
CELLSTYLE_BEGIN
 90
        3
 91
        2
300
_DATA
309
CELLSTYLE_END
  0
ENDSEC
  0
SECTION
  2
ACDSDATA
 70
     2
 71
     8
  0
ACDSSCHEMA
 90
        0
  1
AcDb_Thumbnail_Schema
  2
AcDbDs::ID
280
    10
 91
        8
  2
Thumbnail_Data
280
    15
 91
        0
101
ACDSRECORD
 95
        0
 90
        1
  2
AcDbDs::TreatedAsObjectData
280
     1
291
     1
101
ACDSRECORD
 95
        0
 90
        2
  2
AcDbDs::Legacy
280
     1
291
     1
101
ACDSRECORD
  1
AcDbDs::ID
 90
        3
  2
AcDs:Indexable
280
     1
291
     1
101
ACDSRECORD
  1
AcDbDs::ID
 90
        4
  2
AcDbDs::HandleAttribute
280
     7
282
     1
  0
ACDSSCHEMA
 90
        1
  1
AcDbDs::TreatedAsObjectDataSchema
  2
AcDbDs::TreatedAsObjectData
280
     1
 91
        0
  0
ACDSSCHEMA
 90
        2
  1
AcDbDs::LegacySchema
  2
AcDbDs::Legacy
280
     1
 91
        0
  0
ACDSSCHEMA
 90
        3
  1
AcDbDs::IndexedPropertySchema
  2
AcDs:Indexable
280
     1
 91
        0
  0
ACDSSCHEMA
 90
        4
  1
AcDbDs::HandleAttributeSchema
  2
AcDbDs::HandleAttribute
280
     7
 91
        1
284
     1
  0
ACDSRECORD
 90
        0
  2
AcDbDs::ID
280
    10
320
22
  2
Thumbnail_Data
280
    15
 94
     1490
310
89504E470D0A1A0A0000000D4948445200000100000000670803000000D82A6C0200000300504C5445000000FFFFFF0000000000000000000000000000000000000000000000000000000000330000660000990000CC0000FF0033000033330033660033990033CC0033FF0066000066330066660066990066CC0066FF0099
310
000099330099660099990099CC0099FF00CC0000CC3300CC6600CC9900CCCC00CCFF00FF0000FF3300FF6600FF9900FFCC00FFFF3300003300333300663300993300CC3300FF3333003333333333663333993333CC3333FF3366003366333366663366993366CC3366FF3399003399333399663399993399CC3399FF33CC00
310
33CC3333CC6633CC9933CCCC33CCFF33FF0033FF3333FF6633FF9933FFCC33FFFF6600006600336600666600996600CC6600FF6633006633336633666633996633CC6633FF6666006666336666666666996666CC6666FF6699006699336699666699996699CC6699FF66CC0066CC3366CC6666CC9966CCCC66CCFF66FF0066
310
FF3366FF6666FF9966FFCC66FFFF9900009900339900669900999900CC9900FF9933009933339933669933999933CC9933FF9966009966339966669966999966CC9966FF9999009999339999669999999999CC9999FF99CC0099CC3399CC6699CC9999CCCC99CCFF99FF0099FF3399FF6699FF9999FFCC99FFFFCC0000CC00
310
33CC0066CC0099CC00CCCC00FFCC3300CC3333CC3366CC3399CC33CCCC33FFCC6600CC6633CC6666CC6699CC66CCCC66FFCC9900CC9933CC9966CC9999CC99CCCC99FFCCCC00CCCC33CCCC66CCCC99CCCCCCCCCCFFCCFF00CCFF33CCFF66CCFF99CCFFCCCCFFFFFF0000FF0033FF0066FF0099FF00CCFF00FFFF3300FF3333
310
FF3366FF3399FF33CCFF33FFFF6600FF6633FF6666FF6699FF66CCFF66FFFF9900FF9933FF9966FF9999FF99CCFF99FFFFCC00FFCC33FFCC66FFCC99FFCCCCFFCCFFFFFF00FFFF33FFFF66FFFF99FFFFCCFFFFFF0000000D0D0D1A1A1A2828283535354343435050505D5D5D6B6B6B787878868686939393A1A1A1AEAEAEBB
310
BBBBC9C9C9D6D6D6E4E4E4F1F1F1FFFFFF0000000000000000000000000000000000000000000000000000000000003AE5ACE90000028D4944415478DAED9C5B7602211044590E3FB3FFBF5989DBA8FF6498074F953110BBA1FA9CA827C1097D2DAA115063180C06E3C38090F81E0021AF0301100001100001100001100001
310
10000110000110000108FACF58FFA3833A00745CBED100A0EBFA950200987D08E06ADF4303F201C4636052008714E604E07DF0803023808E5B19D20100A70D22F899AD0AA063771598A0D3FCAEFD0E2E281F80B5B6671D540220A8833068590C1400D83DA0D7B6B60200D15CC029E09C20B7C0200FC0230ED8A4F85D59B711
310
8306052068EC330E2D61740FF08DE115800809C60680FC49E93818762ABCDA62FE269681F9B84068A902CF045048FFB0080C0260B515F9A709DF10822600D90048EEC23F8F04E00A1CF715F9D75707F900AEC07187D4014B00AA0D513E80BDED36277413433C6C8D008E41704E9DF503302E7F6C373616004A5746F5244134
310
80ADEF9702B0A7FF0BC0F941AB63D192012CA1027C027156CBC80096C599E03EA28B25D035293940756E9201C025B82C6BF22AAF416059F3405835AE58F401F88F8F46108058009BC1B50D75008EDBB90004823D17BF2705103CDCBBBF3FB853F7357B00688204E097BBCACB20D7AF1F7DBBF16D0078B6123A318084C0D800
310
10374C24D060734C3880EC4C4C44A0C5E6A06C0030AF00041BC683024036046EBDD51F1380B786F1B7C7915581D2F8FFE321090D33C1974FC4C843A0DC0EA6E5212185000CE602503A263E1980AE5FF7A20080E9F3511155003AF6530B004300F301300440000440000470EF9AF7F70A0653C0FDBD122A800008602400EFAE
310
9D2FAF5101043010804F4E0C10C0F7004CFFCDD2F57D41E5A95FA4D68E646F1DA2DE0B6476F40A408D9D9D335BBF73129C367BAA39E143A00EC079C1B700242B603A0F603018EAE3072E5E8A542865801A0000000049454E44AE426082
  0
ACDSRECORD
 90
        0
  2
AcDbDs::ID
280
    10
320
D3
  2
Thumbnail_Data
280
    15
 94
     1914
310
89504E470D0A1A0A0000000D4948445200000100000000B5080300000087DCD12600000300504C5445FFFFFFFFFFFFFFFFFF0000000000000000000000000000000000000000000000000000330000660000990000CC0000FF0033000033330033660033990033CC0033FF0066000066330066660066990066CC0066FF0099
310
000099330099660099990099CC0099FF00CC0000CC3300CC6600CC9900CCCC00CCFF00FF0000FF3300FF6600FF9900FFCC00FFFF3300003300333300663300993300CC3300FF3333003333333333663333993333CC3333FF3366003366333366663366993366CC3366FF3399003399333399663399993399CC3399FF33CC00
310
33CC3333CC6633CC9933CCCC33CCFF33FF0033FF3333FF6633FF9933FFCC33FFFF6600006600336600666600996600CC6600FF6633006633336633666633996633CC6633FF6666006666336666666666996666CC6666FF6699006699336699666699996699CC6699FF66CC0066CC3366CC6666CC9966CCCC66CCFF66FF0066
310
FF3366FF6666FF9966FFCC66FFFF9900009900339900669900999900CC9900FF9933009933339933669933999933CC9933FF9966009966339966669966999966CC9966FF9999009999339999669999999999CC9999FF99CC0099CC3399CC6699CC9999CCCC99CCFF99FF0099FF3399FF6699FF9999FFCC99FFFFCC0000CC00
310
33CC0066CC0099CC00CCCC00FFCC3300CC3333CC3366CC3399CC33CCCC33FFCC6600CC6633CC6666CC6699CC66CCCC66FFCC9900CC9933CC9966CC9999CC99CCCC99FFCCCC00CCCC33CCCC66CCCC99CCCCCCCCCCFFCCFF00CCFF33CCFF66CCFF99CCFFCCCCFFFFFF0000FF0033FF0066FF0099FF00CCFF00FFFF3300FF3333
310
FF3366FF3399FF33CCFF33FFFF6600FF6633FF6666FF6699FF66CCFF66FFFF9900FF9933FF9966FF9999FF99CCFF99FFFFCC00FFCC33FFCC66FFCC99FFCCCCFFCCFFFFFF00FFFF33FFFF66FFFF99FFFFCCFFFFFF0000000D0D0D1A1A1A2828283535354343435050505D5D5D6B6B6B787878868686939393A1A1A1AEAEAEBB
310
BBBBC9C9C9D6D6D6E4E4E4F1F1F1FFFFFF000000000000000000000000000000000000000000000000000000000000AD4AB4E4000004354944415478DAEDDD4972E4201005D0BCFF31FFB2A30FD1BD280D88199108C8AF85A3EC08CBC5AB24190458F0C7F4058198BE08400002108000C76B3B5704C0D0C74E000210800004
310
20000108400002108000042000010840000210800004200001084000021080002DF7C35A888300FEFF18C7577300E783F8C7E3781B008FC508E600701888BF20C30C80E524B84043A00A80D89F32068023151C39D10AC0D50C3CBE9A6A06E5E121B00A602E09E26A068FF0BF7E3C4F14A801C0ED08E19603A74A84BA003F83
310
5F041C81315507410B00E74B58CD01B74A6015608966401BC07033F89B0372E644AED1B10D00DC9A4181F3C208C0110467D17FEDA09908384B6D3407E0B1112B3043F8794618D60C86F66BFDAAC8D600B86E1804D83E0210BD2176C901C93D8928BF9F9B22D601486ECA4C3C2774DB87E82F2E5E051215C0F99C9D0C3176BE
310
44B9190CDFCE0B74AC9C03BCB2F92FE1FFCD44054140685180C8CD906A109CA933D912205D7E37216E5105EA02609F1C70BE427BF98FF182402D2CF4AB402E0090C8067EAFB9BB803A407305B8ADAD9060F9FBCCAE8F064896BF2A1B740A066D80570150D0015F0DA03C0322FBAEFB4CAD29036805C032FD00648AFB2200C4
310
EB704D08903BC2A83103BAD36CEFE6D93501BC7BB92755BD0D0074E91B8C01E81A00B70E26641180F0A4F0BB0C787FB3E70C7C3DC4C02A0027653D33644B00B8DD82B6670C1F5601A7A7F8A2FCEF72C1A008C89D67579F01FD3143DB1A440580C0A025D0711B7B54E048009148DD47D920A82100E6EA0885DF2C2AA601EA32
310
C07C5DE1E79C58B8750A67BDB26ADCB1FC2ACF052E84C4638E48DAC77D4DE19200739E974A000210600C0008105B066303E0713AB75803B8AF894168CC5B38BF3972D9D42B802737AED98F5BC76EE30808FC41B71BB77B12F4D77B1A6E05C07E00010840006FB6BA6C288F55FB01D9798E4280C0D2A06D018A42601380C81A
310
9E02813D0062BB068B42600380F8B6D1A23C6812A0A1119B170089DB84059A5AF1690190BC0D62CF843ED835A30390D92AD4F3C1C69400D99D2013096801C03200D2AD404660F03E4A05004835C0574D80A89E2394BC4D688D8F7C71C8CE5700A1555EF2C56E62DD2532A5003B25C1E2AA8C4D018A8BE81C37BA2740E9AE8F
310
4F0F10F810404476072810F82DABDA19E07C7826535EBA00331E2038164064760175800FC637F301CC7C1180000420404F002100010840000210800004E8FD3EB59612128055601500A5C5B40458050004489EBF5020174E008C80D500DC6FEB7F9111B06C04B44EBD65D6282C5E050AB6CCB019DC1240CA374A3109EED215
310
B63D18D2DB574880CD72C0BEF301A301EC5C4D00CDA3D82E23E1E052ACC86FD69C61525C05EA015E36D5FE54C00880F8875F1359E873E0DBFD4C4278FF8705FED1B5B96264AB4037801711F0FC806FA31BFF9F588601DA23A06F0EE80330B40A586F054C5E0420000108601DC0F8257F8D5FFF000C8982265C6F144D000000
310
0049454E44AE426082
  0
ENDSEC
  0
EOF
